  0
SECTION
  2
HEADER
  9
$ACADVER
  1
AC1015
  9
$ACADMAINTVER
 70
     6
  9
$DWGCODEPAGE
  3
ANSI_1254
  9
$INSBASE
 10
0.0
 20
0.0
 30
0.0
  9
$EXTMIN
 10
0.0
 20
0.0
 30
0.0
  9
$EXTMAX
 10
279.4
 20
215.9
 30
0.0
  9
$LIMMIN
 10
0.0
 20
0.0
  9
$LIMMAX
 10
279.4
 20
215.9
  9
$ORTHOMODE
 70
     0
  9
$REGENMODE
 70
     1
  9
$FILLMODE
 70
     1
  9
$QTEXTMODE
 70
     0
  9
$MIRRTEXT
 70
     1
  9
$LTSCALE
 40
1.0
  9
$ATTMODE
 70
     1
  9
$TEXTSIZE
 40
3.5
  9
$TRACEWID
 40
1.0
  9
$TEXTSTYLE
  7
Standard
  9
$CLAYER
  8
0
  9
$CELTYPE
  6
ByLayer
  9
$CECOLOR
 62
   256
  9
$CELTSCALE
 40
1.0
  9
$DISPSILH
 70
     0
  9
$DIMSCALE
 40
1.0
  9
$DIMASZ
 40
3.5
  9
$DIMEXO
 40
1.0
  9
$DIMDLI
 40
3.75
  9
$DIMRND
 40
0.0
  9
$DIMDLE
 40
0.0
  9
$DIMEXE
 40
1.0
  9
$DIMTP
 40
0.0
  9
$DIMTM
 40
0.0
  9
$DIMTXT
 40
3.5
  9
$DIMCEN
 40
2.5
  9
$DIMTSZ
 40
0.0
  9
$DIMTOL
 70
     0
  9
$DIMLIM
 70
     0
  9
$DIMTIH
 70
     1
  9
$DIMTOH
 70
     1
  9
$DIMSE1
 70
     0
  9
$DIMSE2
 70
     0
  9
$DIMTAD
 70
     1
  9
$DIMZIN
 70
     0
  9
$DIMBLK
  1

  9
$DIMASO
 70
     1
  9
$DIMSHO
 70
     1
  9
$DIMPOST
  1

  9
$DIMAPOST
  1

  9
$DIMALT
 70
     0
  9
$DIMALTD
 70
     3
  9
$DIMALTF
 40
0.0393700787
  9
$DIMLFAC
 40
1.0
  9
$DIMTOFL
 70
     1
  9
$DIMTVP
 40
0.0
  9
$DIMTIX
 70
     0
  9
$DIMSOXD
 70
     0
  9
$DIMSAH
 70
     0
  9
$DIMBLK1
  1

  9
$DIMBLK2
  1

  9
$DIMSTYLE
  2
ISO-25
  9
$DIMCLRD
 70
     0
  9
$DIMCLRE
 70
     0
  9
$DIMCLRT
 70
     0
  9
$DIMTFAC
 40
1.0
  9
$DIMGAP
 40
1.524
  9
$DIMJUST
 70
     0
  9
$DIMSD1
 70
     0
  9
$DIMSD2
 70
     0
  9
$DIMTOLJ
 70
     0
  9
$DIMTZIN
 70
     0
  9
$DIMALTZ
 70
     0
  9
$DIMALTTZ
 70
     0
  9
$DIMUPT
 70
     0
  9
$DIMDEC
 70
     2
  9
$DIMTDEC
 70
     2
  9
$DIMALTU
 70
     2
  9
$DIMALTTD
 70
     3
  9
$DIMTXSTY
  7
Standard
  9
$DIMAUNIT
 70
     0
  9
$DIMADEC
 70
     2
  9
$DIMALTRND
 40
0.0
  9
$DIMAZIN
 70
     0
  9
$DIMDSEP
 70
    44
  9
$DIMATFIT
 70
     3
  9
$DIMFRAC
 70
     0
  9
$DIMLDRBLK
  1

  9
$DIMLUNIT
 70
     2
  9
$DIMLWD
 70
    -2
  9
$DIMLWE
 70
    -2
  9
$DIMTMOVE
 70
     0
  9
$LUNITS
 70
     2
  9
$LUPREC
 70
     2
  9
$SKETCHINC
 40
1.0
  9
$FILLETRAD
 40
10.0
  9
$AUNITS
 70
     0
  9
$AUPREC
 70
     2
  9
$MENU
  1
.
  9
$ELEVATION
 40
0.0
  9
$PELEVATION
 40
0.0
  9
$THICKNESS
 40
0.0
  9
$LIMCHECK
 70
     0
  9
$CHAMFERA
 40
0.0
  9
$CHAMFERB
 40
0.0
  9
$CHAMFERC
 40
0.0
  9
$CHAMFERD
 40
0.0
  9
$SKPOLY
 70
     0
  9
$TDCREATE
 40
2459741.607852488
  9
$TDUCREATE
 40
2459741.482852488
  9
$TDUPDATE
 40
2459741.607852674
  9
$TDUUPDATE
 40
2459741.482852674
  9
$TDINDWG
 40
0.0000000116
  9
$TDUSRTIMER
 40
0.0000000116
  9
$USRTIMER
 70
     1
  9
$ANGBASE
 50
0.0
  9
$ANGDIR
 70
     0
  9
$PDMODE
 70
     0
  9
$PDSIZE
 40
-1.0
  9
$PLINEWID
 40
0.0
  9
$SPLFRAME
 70
     0
  9
$SPLINETYPE
 70
     6
  9
$SPLINESEGS
 70
     8
  9
$HANDSEED
  5
107
  9
$SURFTAB1
 70
     6
  9
$SURFTAB2
 70
     6
  9
$SURFTYPE
 70
     6
  9
$SURFU
 70
     6
  9
$SURFV
 70
     6
  9
$UCSBASE
  2

  9
$UCSNAME
  2

  9
$UCSORG
 10
0.0
 20
0.0
 30
0.0
  9
$UCSXDIR
 10
1.0
 20
0.0
 30
0.0
  9
$UCSYDIR
 10
0.0
 20
1.0
 30
0.0
  9
$UCSORTHOREF
  2

  9
$UCSORTHOVIEW
 70
     0
  9
$UCSORGTOP
 10
0.0
 20
0.0
 30
0.0
  9
$UCSORGBOTTOM
 10
0.0
 20
0.0
 30
0.0
  9
$UCSORGLEFT
 10
0.0
 20
0.0
 30
0.0
  9
$UCSORGRIGHT
 10
0.0
 20
0.0
 30
0.0
  9
$UCSORGFRONT
 10
0.0
 20
0.0
 30
0.0
  9
$UCSORGBACK
 10
0.0
 20
0.0
 30
0.0
  9
$PUCSBASE
  2

  9
$PUCSNAME
  2

  9
$PUCSORG
 10
0.0
 20
0.0
 30
0.0
  9
$PUCSXDIR
 10
1.0
 20
0.0
 30
0.0
  9
$PUCSYDIR
 10
0.0
 20
1.0
 30
0.0
  9
$PUCSORTHOREF
  2

  9
$PUCSORTHOVIEW
 70
     0
  9
$PUCSORGTOP
 10
0.0
 20
0.0
 30
0.0
  9
$PUCSORGBOTTOM
 10
0.0
 20
0.0
 30
0.0
  9
$PUCSORGLEFT
 10
0.0
 20
0.0
 30
0.0
  9
$PUCSORGRIGHT
 10
0.0
 20
0.0
 30
0.0
  9
$PUCSORGFRONT
 10
0.0
 20
0.0
 30
0.0
  9
$PUCSORGBACK
 10
0.0
 20
0.0
 30
0.0
  9
$USERI1
 70
     0
  9
$USERI2
 70
     0
  9
$USERI3
 70
     0
  9
$USERI4
 70
     0
  9
$USERI5
 70
     0
  9
$USERR1
 40
0.0
  9
$USERR2
 40
0.0
  9
$USERR3
 40
0.0
  9
$USERR4
 40
0.0
  9
$USERR5
 40
0.0
  9
$WORLDVIEW
 70
     1
  9
$SHADEDGE
 70
     3
  9
$SHADEDIF
 70
    70
  9
$TILEMODE
 70
     1
  9
$MAXACTVP
 70
    64
  9
$PINSBASE
 10
0.0
 20
0.0
 30
0.0
  9
$PLIMCHECK
 70
     0
  9
$PEXTMIN
 10
1.0000000000E+20
 20
1.0000000000E+20
 30
1.0000000000E+20
  9
$PEXTMAX
 10
-1.0000000000E+20
 20
-1.0000000000E+20
 30
-1.0000000000E+20
  9
$PLIMMIN
 10
0.0
 20
0.0
  9
$PLIMMAX
 10
420.0
 20
297.0
  9
$UNITMODE
 70
     0
  9
$VISRETAIN
 70
     1
  9
$PLINEGEN
 70
     0
  9
$PSLTSCALE
 70
     1
  9
$TREEDEPTH
 70
  3020
  9
$CMLSTYLE
  2
Standard
  9
$CMLJUST
 70
     0
  9
$CMLSCALE
 40
20.0
  9
$PROXYGRAPHICS
 70
     1
  9
$MEASUREMENT
 70
     1
  9
$CELWEIGHT
370
    -1
  9
$ENDCAPS
280
     0
  9
$JOINSTYLE
280
     0
  9
$LWDISPLAY
290
     1
  9
$INSUNITS
 70
     4
  9
$HYPERLINKBASE
  1

  9
$STYLESHEET
  1

  9
$XEDIT
290
     1
  9
$CEPSNTYPE
380
     0
  9
$PSTYLEMODE
290
     1
  9
$FINGERPRINTGUID
  2
{aa7b72a9-cddb-4b21-a22c-9e02eaa2577e}
  9
$VERSIONGUID
  2
{FAEB1C32-E019-11D5-929B-00C0DF256EC4}
  9
$EXTNAMES
290
     1
  9
$PSVPSCALE
 40
0.0
  9
$OLESTARTUP
290
     0
  0
ENDSEC
  0
SECTION
  2
CLASSES
  0
CLASS
  1
ACDBDICTIONARYWDFLT
  2
AcDbDictionaryWithDefault
  3
ObjectDBX Classes
 90
        0
280
     0
281
     0
  0
CLASS
  1
VISUALSTYLE
  2
AcDbVisualStyle
  3
ObjectDBX Classes
 90
     4095
280
     0
281
     0
  0
CLASS
  1
MATERIAL
  2
AcDbMaterial
  3
ObjectDBX Classes
 90
     1153
280
     0
281
     0
  0
CLASS
  1
SCALE
  2
AcDbScale
  3
ObjectDBX Classes
 90
     1153
280
     0
281
     0
  0
CLASS
  1
TABLESTYLE
  2
AcDbTableStyle
  3
ObjectDBX Classes
 90
     4095
280
     0
281
     0
  0
CLASS
  1
MLEADERSTYLE
  2
AcDbMLeaderStyle
  3
ACDB_MLEADERSTYLE_CLASS
 90
     4095
280
     0
281
     0
  0
CLASS
  1
SUN
  2
AcDbSun
  3
SCENEOE
 90
     1153
280
     0
281
     0
  0
CLASS
  1
ACDBPLACEHOLDER
  2
AcDbPlaceHolder
  3
ObjectDBX Classes
 90
        0
280
     0
281
     0
  0
CLASS
  1
LAYOUT
  2
AcDbLayout
  3
ObjectDBX Classes
 90
        0
280
     0
281
     0
  0
ENDSEC
  0
SECTION
  2
TABLES
  0
TABLE
  2
VPORT
  5
8
330
0
100
AcDbSymbolTable
 70
     1
  0
VPORT
  5
29
330
8
100
AcDbSymbolTableRecord
100
AcDbViewportTableRecord
  2
*Active
 70
     0
 10
0.0
 20
0.0
 11
1.0
 21
1.0
 12
139.7
 22
107.95
 13
0.0
 23
0.0
 14
10.0
 24
10.0
 15
10.0
 25
10.0
 16
0.0
 26
0.0
 36
1.0
 17
0.0
 27
0.0
 37
0.0
 40
215.9
 41
1.2941176471
 42
50.0
 43
0.0
 44
0.0
 50
0.0
 51
0.0
 71
     0
 72
  2000
 73
     1
 74
     3
 75
     0
 76
     0
 77
     0
 78
     0
281
     0
 65
     1
110
0.0
120
0.0
130
0.0
111
1.0
121
0.0
131
0.0
112
0.0
122
1.0
132
0.0
 79
     0
146
0.0
  0
ENDTAB
  0
TABLE
  2
LTYPE
  5
5
330
0
100
AcDbSymbolTable
 70
     6
  0
LTYPE
  5
14
330
5
100
AcDbSymbolTableRecord
100
AcDbLinetypeTableRecord
  2
ByBlock
 70
     0
  3

 72
    65
 73
     0
 40
0.0
  0
LTYPE
  5
15
330
5
100
AcDbSymbolTableRecord
100
AcDbLinetypeTableRecord
  2
ByLayer
 70
     0
  3

 72
    65
 73
     0
 40
0.0
  0
LTYPE
  5
16
330
5
100
AcDbSymbolTableRecord
100
AcDbLinetypeTableRecord
  2
Continuous
 70
     0
  3
Solid line
 72
    65
 73
     0
 40
0.0
  0
LTYPE
  5
6E
330
5
100
AcDbSymbolTableRecord
100
AcDbLinetypeTableRecord
  2
HIDDEN
 70
     0
  3
Hidden __ __ __ __ __ __ __ __ __ __ __ __ __ __
 72
    65
 73
     2
 40
1.905
 49
1.27
 74
     0
 49
-0.635
 74
     0
  0
LTYPE
  5
6F
330
5
100
AcDbSymbolTableRecord
100
AcDbLinetypeTableRecord
  2
PHANTOM
 70
     0
  3
Phantom ______  __  __  ______  __  __  ______
 72
    65
 73
     6
 40
12.7
 49
6.35
 74
     0
 49
-1.27
 74
     0
 49
1.27
 74
     0
 49
-1.27
 74
     0
 49
1.27
 74
     0
 49
-1.27
 74
     0
  0
LTYPE
  5
70
330
5
100
AcDbSymbolTableRecord
100
AcDbLinetypeTableRecord
  2
CENTER
 70
     0
  3
Center ____ _ ____ _ ____ _ ____ _ ____ _ ____
 72
    65
 73
     4
 40
10.16
 49
6.35
 74
     0
 49
-1.27
 74
     0
 49
1.27
 74
     0
 49
-1.27
 74
     0
  0
LTYPE
  5
71
330
5
100
AcDbSymbolTableRecord
100
AcDbLinetypeTableRecord
  2
CENTERX2
 70
     0
  3
Center (2x) ________  __  ________  __  _____
 72
    65
 73
     4
 40
20.32
 49
12.7
 74
     0
 49
-2.54
 74
     0
 49
2.54
 74
     0
 49
-2.54
 74
     0
  0
LTYPE
  5
72
330
5
100
AcDbSymbolTableRecord
100
AcDbLinetypeTableRecord
  2
DOT2
 70
     0
  3
Dot (.5x) ........................................
 72
    65
 73
     2
 40
0.635
 49
0.0
 74
     0
 49
-0.635
 74
     0
  0
ENDTAB
  0
TABLE
  2
LAYER
  5
2
330
0
100
AcDbSymbolTable
 70
    17
  0
LAYER
  5
10
330
2
100
AcDbSymbolTableRecord
100
AcDbLayerTableRecord
  2
0
 70
     0
 62
     7
  6
Continuous
370
    -3
390
F
  0
LAYER
  5
73
330
2
100
AcDbSymbolTableRecord
100
AcDbLayerTableRecord
  2
FORMAT
 70
     0
 62
     7
  6
Continuous
370
    -3
390
F
  0
LAYER
  5
74
330
2
100
AcDbSymbolTableRecord
100
AcDbLayerTableRecord
  2
YARDIMCI_GEOMETRI
 70
     0
 62
    -6
  6
Continuous
290
     0
370
    -3
390
F
  0
LAYER
  5
75
330
2
100
AcDbSymbolTableRecord
100
AcDbLayerTableRecord
  2
SAYFA_CERCEVESI
 70
     0
 62
     7
  6
Continuous
370
    25
390
F
  0
LAYER
  5
76
330
2
100
AcDbSymbolTableRecord
100
AcDbLayerTableRecord
  2
ANTET
 70
     0
 62
     7
  6
Continuous
370
    -3
390
F
  0
LAYER
  5
77
330
2
100
AcDbSymbolTableRecord
100
AcDbLayerTableRecord
  2
OLCU
 70
     0
 62
   150
  6
Continuous
370
    -3
390
F
  0
LAYER
  5
78
330
2
100
AcDbSymbolTableRecord
100
AcDbLayerTableRecord
  2
METIN
 70
     0
 62
    96
  6
Continuous
370
    -3
390
F
  0
LAYER
  5
79
330
2
100
AcDbSymbolTableRecord
100
AcDbLayerTableRecord
  2
BALON
 70
     0
 62
     5
  6
Continuous
370
    -3
390
F
  0
LAYER
  5
7A
330
2
100
AcDbSymbolTableRecord
100
AcDbLayerTableRecord
  2
VURGU
 70
     0
 62
     7
  6
Continuous
370
    -3
390
F
  0
LAYER
  5
7B
330
2
100
AcDbSymbolTableRecord
100
AcDbLayerTableRecord
  2
SILIK
 70
     0
 62
     7
  6
Continuous
370
    -3
390
F
  0
LAYER
  5
7C
330
2
100
AcDbSymbolTableRecord
100
AcDbLayerTableRecord
  2
MODEL
 70
     0
 62
     7
  6
Continuous
370
    -3
390
F
  0
LAYER
  5
7D
330
2
100
AcDbSymbolTableRecord
100
AcDbLayerTableRecord
  2
DETAYLANDıRMA
 70
     0
 62
   190
  6
Continuous
370
    -3
390
F
  0
LAYER
  5
7E
330
2
100
AcDbSymbolTableRecord
100
AcDbLayerTableRecord
  2
TOLERANS
 70
     0
 62
   230
  6
Continuous
370
    -3
390
F
  0
LAYER
  5
7F
330
2
100
AcDbSymbolTableRecord
100
AcDbLayerTableRecord
  2
MERKEZ_CIZGILERI
 70
     0
 62
    30
  6
Continuous
370
    -3
390
F
  0
LAYER
  5
80
330
2
100
AcDbSymbolTableRecord
100
AcDbLayerTableRecord
  2
KESIT-DETAY_CIZGILERI
 70
     0
 62
     7
  6
Continuous
370
    -3
390
F
  0
LAYER
  5
81
330
2
100
AcDbSymbolTableRecord
100
AcDbLayerTableRecord
  2
\U+041E\U+0421\U+0415\U+0412\U+042B\U+0415
 70
     0
 62
     7
  6
Continuous
370
    -3
390
F
  0
LAYER
  5
82
330
2
100
AcDbSymbolTableRecord
100
AcDbLayerTableRecord
  2
\U+0412\U+041E\U+0414\U+042F\U+041D\U+042B\U+0415_\U+0417\U+041D\U+0410\U+041A\U+0418
 70
     0
 62
    11
  6
Continuous
370
    -3
390
F
  0
ENDTAB
  0
TABLE
  2
STYLE
  5
3
330
0
100
AcDbSymbolTable
 70
     1
  0
STYLE
  5
11
330
3
100
AcDbSymbolTableRecord
100
AcDbTextStyleTableRecord
  2
Standard
 70
     0
 40
0.0
 41
1.0
 50
0.0
 71
     0
 42
3.5
  3
txt
  4

  0
ENDTAB
  0
TABLE
  2
VIEW
  5
6
330
0
100
AcDbSymbolTable
 70
     0
  0
ENDTAB
  0
TABLE
  2
UCS
  5
7
330
0
100
AcDbSymbolTable
 70
     0
  0
ENDTAB
  0
TABLE
  2
APPID
  5
9
330
0
100
AcDbSymbolTable
 70
     1
  0
APPID
  5
12
330
9
100
AcDbSymbolTableRecord
100
AcDbRegAppTableRecord
  2
ACAD
 70
     0
  0
ENDTAB
  0
TABLE
  2
DIMSTYLE
  5
A
330
0
100
AcDbSymbolTable
 70
     1
100
AcDbDimStyleTable
  0
DIMSTYLE
105
27
330
A
100
AcDbSymbolTableRecord
100
AcDbDimStyleTableRecord
  2
ISO-25
 70
     0
 41
2.5
 42
0.625
 43
3.75
 44
1.25
 73
     0
 74
     0
 77
     1
 78
     8
140
2.5
141
2.5
143
0.0393700787
147
0.625
171
     3
172
     1
178
     0
271
     2
272
     2
274
     3
278
    44
283
     0
284
     8
340
11
  0
ENDTAB
  0
TABLE
  2
BLOCK_RECORD
  5
1
330
0
100
AcDbSymbolTable
 70
     5
  0
BLOCK_RECORD
  5
1F
330
1
100
AcDbSymbolTableRecord
100
AcDbBlockTableRecord
  2
*Model_Space
340
22
  0
BLOCK_RECORD
  5
1B
330
1
100
AcDbSymbolTableRecord
100
AcDbBlockTableRecord
  2
*Paper_Space
340
1E
  0
BLOCK_RECORD
  5
23
330
1
100
AcDbSymbolTableRecord
100
AcDbBlockTableRecord
  2
*Paper_Space0
340
26
  0
BLOCK_RECORD
  5
8C
330
1
100
AcDbSymbolTableRecord
100
AcDbBlockTableRecord
  2
SW_CENTERMARKSYMBOL_0
340
0
102
{BLKREFS
331
97
102
}
  0
BLOCK_RECORD
  5
AA
330
1
100
AcDbSymbolTableRecord
100
AcDbBlockTableRecord
  2
SW_CENTERMARKSYMBOL_1
340
0
102
{BLKREFS
331
B5
102
}
  0
BLOCK_RECORD
  5
DA
330
1
100
AcDbSymbolTableRecord
100
AcDbBlockTableRecord
  2
SW_CENTERMARKSYMBOL_2
340
0
102
{BLKREFS
331
E5
102
}
  0
BLOCK_RECORD
  5
E6
330
1
100
AcDbSymbolTableRecord
100
AcDbBlockTableRecord
  2
SW_CENTERMARKSYMBOL_3
340
0
102
{BLKREFS
331
F1
102
}
  0
ENDTAB
  0
ENDSEC
  0
SECTION
  2
BLOCKS
  0
BLOCK
  5
20
330
1F
100
AcDbEntity
  8
0
100
AcDbBlockBegin
  2
*Model_Space
 70
     0
 10
0.0
 20
0.0
 30
0.0
  3
*Model_Space
  1

  0
ENDBLK
  5
21
330
1F
100
AcDbEntity
  8
0
100
AcDbBlockEnd
  0
BLOCK
  5
1C
330
1B
100
AcDbEntity
 67
     1
  8
0
100
AcDbBlockBegin
  2
*Paper_Space
 70
     0
 10
0.0
 20
0.0
 30
0.0
  3
*Paper_Space
  1

  0
ENDBLK
  5
1D
330
1B
100
AcDbEntity
 67
     1
  8
0
100
AcDbBlockEnd
  0
BLOCK
  5
24
330
23
100
AcDbEntity
  8
0
100
AcDbBlockBegin
  2
*Paper_Space0
 70
     0
 10
0.0
 20
0.0
 30
0.0
  3
*Paper_Space0
  1

  0
ENDBLK
  5
25
330
23
100
AcDbEntity
  8
0
100
AcDbBlockEnd
  0
BLOCK
  5
8D
330
8C
100
AcDbEntity
  8
0
100
AcDbBlockBegin
  2
SW_CENTERMARKSYMBOL_0
 70
     0
 10
0.0
 20
0.0
 30
0.0
  3
SW_CENTERMARKSYMBOL_0
  1

  0
LINE
  5
8F
330
8C
100
AcDbEntity
  8
FORMAT
 62
     0
100
AcDbLine
 10
0.0
 20
0.0
 30
0.0
 11
0.0
 21
2.5
 31
0.0
  0
LINE
  5
90
330
8C
100
AcDbEntity
  8
FORMAT
 62
     0
100
AcDbLine
 10
0.0
 20
0.0
 30
0.0
 11
-2.5
 21
0.0
 31
0.0
  0
LINE
  5
91
330
8C
100
AcDbEntity
  8
FORMAT
 62
     0
100
AcDbLine
 10
0.0
 20
0.0
 30
0.0
 11
0.0
 21
-2.5
 31
0.0
  0
LINE
  5
92
330
8C
100
AcDbEntity
  8
FORMAT
 62
     0
100
AcDbLine
 10
0.0
 20
0.0
 30
0.0
 11
2.5
 21
0.0
 31
0.0
  0
LINE
  5
93
330
8C
100
AcDbEntity
  8
FORMAT
 62
     0
100
AcDbLine
 10
0.0
 20
5.0
 30
0.0
 11
0.0
 21
24.5
 31
0.0
  0
LINE
  5
94
330
8C
100
AcDbEntity
  8
FORMAT
 62
     0
100
AcDbLine
 10
-5.0
 20
0.0
 30
0.0
 11
-24.5
 21
0.0
 31
0.0
  0
LINE
  5
95
330
8C
100
AcDbEntity
  8
FORMAT
 62
     0
100
AcDbLine
 10
0.0
 20
-5.0
 30
0.0
 11
0.0
 21
-24.5
 31
0.0
  0
LINE
  5
96
330
8C
100
AcDbEntity
  8
FORMAT
 62
     0
100
AcDbLine
 10
5.0
 20
0.0
 30
0.0
 11
24.5
 21
0.0
 31
0.0
  0
ENDBLK
  5
8E
330
8C
100
AcDbEntity
  8
0
100
AcDbBlockEnd
  0
BLOCK
  5
AB
330
AA
100
AcDbEntity
  8
0
100
AcDbBlockBegin
  2
SW_CENTERMARKSYMBOL_1
 70
     0
 10
0.0
 20
0.0
 30
0.0
  3
SW_CENTERMARKSYMBOL_1
  1

  0
LINE
  5
AD
330
AA
100
AcDbEntity
  8
FORMAT
 62
     0
100
AcDbLine
 10
0.0
 20
0.0
 30
0.0
 11
0.0
 21
2.5
 31
0.0
  0
LINE
  5
AE
330
AA
100
AcDbEntity
  8
FORMAT
 62
     0
100
AcDbLine
 10
0.0
 20
0.0
 30
0.0
 11
-2.5
 21
0.0
 31
0.0
  0
LINE
  5
AF
330
AA
100
AcDbEntity
  8
FORMAT
 62
     0
100
AcDbLine
 10
0.0
 20
0.0
 30
0.0
 11
0.0
 21
-2.5
 31
0.0
  0
LINE
  5
B0
330
AA
100
AcDbEntity
  8
FORMAT
 62
     0
100
AcDbLine
 10
0.0
 20
0.0
 30
0.0
 11
2.5
 21
0.0
 31
0.0
  0
LINE
  5
B1
330
AA
100
AcDbEntity
  8
FORMAT
 62
     0
100
AcDbLine
 10
0.0
 20
5.0
 30
0.0
 11
0.0
 21
15.0
 31
0.0
  0
LINE
  5
B2
330
AA
100
AcDbEntity
  8
FORMAT
 62
     0
100
AcDbLine
 10
-5.0
 20
0.0
 30
0.0
 11
-15.0
 21
0.0
 31
0.0
  0
LINE
  5
B3
330
AA
100
AcDbEntity
  8
FORMAT
 62
     0
100
AcDbLine
 10
0.0
 20
-5.0
 30
0.0
 11
0.0
 21
-15.0
 31
0.0
  0
LINE
  5
B4
330
AA
100
AcDbEntity
  8
FORMAT
 62
     0
100
AcDbLine
 10
5.0
 20
0.0
 30
0.0
 11
15.0
 21
0.0
 31
0.0
  0
ENDBLK
  5
AC
330
AA
100
AcDbEntity
  8
0
100
AcDbBlockEnd
  0
BLOCK
  5
DB
330
DA
100
AcDbEntity
  8
0
100
AcDbBlockBegin
  2
SW_CENTERMARKSYMBOL_2
 70
     0
 10
0.0
 20
0.0
 30
0.0
  3
SW_CENTERMARKSYMBOL_2
  1

  0
LINE
  5
DD
330
DA
100
AcDbEntity
  8
FORMAT
 62
     0
100
AcDbLine
 10
0.0
 20
0.0
 30
0.0
 11
0.0
 21
2.5
 31
0.0
  0
LINE
  5
DE
330
DA
100
AcDbEntity
  8
FORMAT
 62
     0
100
AcDbLine
 10
0.0
 20
0.0
 30
0.0
 11
-2.5
 21
0.0
 31
0.0
  0
LINE
  5
DF
330
DA
100
AcDbEntity
  8
FORMAT
 62
     0
100
AcDbLine
 10
0.0
 20
0.0
 30
0.0
 11
0.0
 21
-2.5
 31
0.0
  0
LINE
  5
E0
330
DA
100
AcDbEntity
  8
FORMAT
 62
     0
100
AcDbLine
 10
0.0
 20
0.0
 30
0.0
 11
2.5
 21
0.0
 31
0.0
  0
LINE
  5
E1
330
DA
100
AcDbEntity
  8
FORMAT
 62
     0
100
AcDbLine
 10
0.0
 20
5.0
 30
0.0
 11
0.0
 21
9.5
 31
0.0
  0
LINE
  5
E2
330
DA
100
AcDbEntity
  8
FORMAT
 62
     0
100
AcDbLine
 10
-5.0
 20
0.0
 30
0.0
 11
-9.5
 21
0.0
 31
0.0
  0
LINE
  5
E3
330
DA
100
AcDbEntity
  8
FORMAT
 62
     0
100
AcDbLine
 10
0.0
 20
-5.0
 30
0.0
 11
0.0
 21
-9.5
 31
0.0
  0
LINE
  5
E4
330
DA
100
AcDbEntity
  8
FORMAT
 62
     0
100
AcDbLine
 10
5.0
 20
0.0
 30
0.0
 11
9.5
 21
0.0
 31
0.0
  0
ENDBLK
  5
DC
330
DA
100
AcDbEntity
  8
0
100
AcDbBlockEnd
  0
BLOCK
  5
E7
330
E6
100
AcDbEntity
  8
0
100
AcDbBlockBegin
  2
SW_CENTERMARKSYMBOL_3
 70
     0
 10
0.0
 20
0.0
 30
0.0
  3
SW_CENTERMARKSYMBOL_3
  1

  0
LINE
  5
E9
330
E6
100
AcDbEntity
  8
FORMAT
 62
     0
100
AcDbLine
 10
0.0
 20
0.0
 30
0.0
 11
0.0
 21
2.5
 31
0.0
  0
LINE
  5
EA
330
E6
100
AcDbEntity
  8
FORMAT
 62
     0
100
AcDbLine
 10
0.0
 20
0.0
 30
0.0
 11
-2.5
 21
0.0
 31
0.0
  0
LINE
  5
EB
330
E6
100
AcDbEntity
  8
FORMAT
 62
     0
100
AcDbLine
 10
0.0
 20
0.0
 30
0.0
 11
0.0
 21
-2.5
 31
0.0
  0
LINE
  5
EC
330
E6
100
AcDbEntity
  8
FORMAT
 62
     0
100
AcDbLine
 10
0.0
 20
0.0
 30
0.0
 11
2.5
 21
0.0
 31
0.0
  0
LINE
  5
ED
330
E6
100
AcDbEntity
  8
FORMAT
 62
     0
100
AcDbLine
 10
0.0
 20
5.0
 30
0.0
 11
0.0
 21
9.5
 31
0.0
  0
LINE
  5
EE
330
E6
100
AcDbEntity
  8
FORMAT
 62
     0
100
AcDbLine
 10
-5.0
 20
0.0
 30
0.0
 11
-9.5
 21
0.0
 31
0.0
  0
LINE
  5
EF
330
E6
100
AcDbEntity
  8
FORMAT
 62
     0
100
AcDbLine
 10
0.0
 20
-5.0
 30
0.0
 11
0.0
 21
-9.5
 31
0.0
  0
LINE
  5
F0
330
E6
100
AcDbEntity
  8
FORMAT
 62
     0
100
AcDbLine
 10
5.0
 20
0.0
 30
0.0
 11
9.5
 21
0.0
 31
0.0
  0
ENDBLK
  5
E8
330
E6
100
AcDbEntity
  8
0
100
AcDbBlockEnd
  0
ENDSEC
  0
SECTION
  2
ENTITIES
  0
LINE
  5
83
330
1F
100
AcDbEntity
  8
0
  6
Continuous
 62
     7
370
    25
100
AcDbLine
 10
121.3295369748
 20
132.3964975019
 30
0.0
 11
121.3295369748
 21
171.0314365546
 31
0.0
  0
LINE
  5
84
330
1F
100
AcDbEntity
  8
0
  6
Continuous
 62
     7
370
    25
100
AcDbLine
 10
107.3295369748
 20
171.0314365546
 30
0.0
 11
107.3295369748
 21
132.395814718
 31
0.0
  0
LINE
  5
85
330
1F
100
AcDbEntity
  8
0
  6
Continuous
 62
     7
370
    25
100
AcDbLine
 10
132.4357905313
 20
99.0314365546
 30
0.0
 11
204.3295369748
 21
99.0314365546
 31
0.0
  0
LINE
  5
86
330
1F
100
AcDbEntity
  8
0
  6
Continuous
 62
     7
370
    25
100
AcDbLine
 10
204.3295369748
 20
124.0314365546
 30
0.0
 11
132.4451028479
 21
124.0314365546
 31
0.0
  0
CIRCLE
  5
87
330
1F
100
AcDbEntity
  8
0
  6
Continuous
 62
     7
370
    25
100
AcDbCircle
 10
114.3295369748
 20
111.5314365546
 30
0.0
 40
12.5
  0
CIRCLE
  5
88
330
1F
100
AcDbEntity
  8
0
  6
Continuous
 62
     7
370
    25
100
AcDbCircle
 10
114.3295369748
 20
111.5314365546
 30
0.0
 40
22.00000000000003
  0
LINE
  5
89
330
1F
100
AcDbEntity
  8
0
  6
Continuous
 62
     7
370
    25
100
AcDbLine
 10
114.3295369748
 20
171.0314365546
 30
0.0
 11
107.3295369748
 21
171.0314365546
 31
0.0
  0
LINE
  5
8A
330
1F
100
AcDbEntity
  8
0
  6
Continuous
 62
     7
370
    25
100
AcDbLine
 10
121.3295369748
 20
171.0314365546
 30
0.0
 11
114.3295369748
 21
171.0314365546
 31
0.0
  0
LINE
  5
8B
330
1F
100
AcDbEntity
  8
0
  6
Continuous
 62
     7
370
    25
100
AcDbLine
 10
204.3295369748
 20
124.0314365546
 30
0.0
 11
204.3295369748
 21
99.0314365546
 31
0.0
  0
INSERT
  5
97
330
1F
100
AcDbEntity
  8
FORMAT
 62
     7
100
AcDbBlockReference
  2
SW_CENTERMARKSYMBOL_0
 10
114.3295369748
 20
111.5314365546
 30
0.0
  0
LINE
  5
98
330
1F
100
AcDbEntity
  8
0
  6
Continuous
 62
     7
370
    25
100
AcDbLine
 10
-49.7366793559
 20
133.5314365546
 30
0.0
 11
-50.7411430421
 21
133.5314365546
 31
0.0
  0
LINE
  5
99
330
1F
100
AcDbEntity
  8
0
  6
Continuous
 62
     7
370
    25
100
AcDbLine
 10
32.2633206441
 20
133.5314365546
 30
0.0
 11
-35.7411430421
 21
133.5314365546
 31
0.0
  0
LINE
  5
9A
330
1F
100
AcDbEntity
  8
0
  6
Continuous
 62
     7
370
    25
100
AcDbLine
 10
47.2588569579
 20
133.5314365546
 30
0.0
 11
46.2588569579
 21
133.5314365546
 31
0.0
  0
LINE
  5
9B
330
1F
100
AcDbEntity
  8
0
  6
Continuous
 62
     7
370
    25
100
AcDbLine
 10
-50.7411430421
 20
89.5314365546
 30
0.0
 11
47.2588569579
 21
89.5314365546
 31
0.0
  0
LINE
  5
9C
330
1F
100
AcDbEntity
  8
0
  6
Continuous
 62
     7
370
    25
100
AcDbLine
 10
46.2588569579
 20
133.5314365546
 30
0.0
 11
46.2588569579
 21
171.0314365546
 31
0.0
  0
LINE
  5
9D
330
1F
100
AcDbEntity
  8
0
  6
Continuous
 62
     7
370
    25
100
AcDbLine
 10
32.2588569579
 20
171.0314365546
 30
0.0
 11
32.2588569579
 21
133.5300303083
 31
0.0
  0
LINE
  5
9E
330
1F
100
AcDbEntity
  8
0
  6
Continuous
 62
     7
370
    25
100
AcDbLine
 10
-35.7411430421
 20
133.5314365546
 30
0.0
 11
-35.7411430421
 21
171.0314365546
 31
0.0
  0
LINE
  5
9F
330
1F
100
AcDbEntity
  8
0
  6
Continuous
 62
     7
370
    25
100
AcDbLine
 10
-49.7411430421
 20
171.0314365546
 30
0.0
 11
-49.7411430421
 21
133.5300303083
 31
0.0
  0
CIRCLE
  5
A0
330
1F
100
AcDbEntity
  8
0
  6
Continuous
 62
     7
370
    25
100
AcDbCircle
 10
-1.7411430421
 20
111.5314365546
 30
0.0
 40
9.5
  0
CIRCLE
  5
A1
330
1F
100
AcDbEntity
  8
0
  6
Continuous
 62
     7
370
    25
100
AcDbCircle
 10
-1.7411430421
 20
111.5314365546
 30
0.0
 40
12.5
  0
LINE
  5
A2
330
1F
100
AcDbEntity
  8
0
  6
Continuous
 62
     7
370
    25
100
AcDbLine
 10
-50.7411430421
 20
111.5314365546
 30
0.0
 11
-50.7411430421
 21
133.5314365546
 31
0.0
  0
LINE
  5
A3
330
1F
100
AcDbEntity
  8
0
  6
Continuous
 62
     7
370
    25
100
AcDbLine
 10
-50.7411430421
 20
89.5314365546
 30
0.0
 11
-50.7411430421
 21
111.5314365546
 31
0.0
  0
LINE
  5
A4
330
1F
100
AcDbEntity
  8
0
  6
Continuous
 62
     7
370
    25
100
AcDbLine
 10
47.2588569579
 20
111.5314365546
 30
0.0
 11
47.2588569579
 21
133.5314365546
 31
0.0
  0
LINE
  5
A5
330
1F
100
AcDbEntity
  8
0
  6
Continuous
 62
     7
370
    25
100
AcDbLine
 10
47.2588569579
 20
89.5314365546
 30
0.0
 11
47.2588569579
 21
111.5314365546
 31
0.0
  0
SPLINE
  5
A6
330
1F
100
AcDbEntity
  8
0
  6
Continuous
 62
     7
370
    25
100
AcDbSpline
210
0.0
220
0.0
230
1.0
 70
     8
 71
     3
 72
    26
 73
    22
 74
     0
 42
0.00000001
 43
0.00000001
 40
0.0
 40
0.0
 40
0.0
 40
0.0
 40
0.0511331702582496
 40
0.1037933502116473
 40
0.1549148013619596
 40
0.2074417768953689
 40
0.2600413000836436
 40
0.3140886931757431
 40
0.3679559167468817
 40
0.4234801630950363
 40
0.4756383272155059
 40
0.5294418203860601
 40
0.5795304303166957
 40
0.6310342995611095
 40
0.6819291980775328
 40
0.7341721164585325
 40
0.7874318086195184
 40
0.8422062946748826
 40
0.8958262704989401
 40
0.9511281357176448
 40
1.0
 40
1.0
 40
1.0
 40
1.0
 10
46.25885695786165
 20
133.5314365546218
 30
0.0
 10
46.24115819577987
 20
133.5257725290652
 30
0.0
 10
46.2052321266199
 20
133.5142753309599
 30
0.0
 10
45.91702987585769
 20
133.4241244465474
 30
0.0
 10
45.46356679474961
 20
133.2894945294114
 30
0.0
 10
44.84461703622689
 20
133.119601415697
 30
0.0
 10
44.06525786919613
 20
132.929405687116
 30
0.0
 10
43.14533762370775
 20
132.7397100033613
 30
0.0
 10
42.09435920145908
 20
132.5704891762118
 30
0.0
 10
40.96758843689074
 20
132.4473148239437
 30
0.0
 10
39.78846757992979
 20
132.3837805380212
 30
0.0
 10
38.63204111154206
 20
132.3869429307582
 30
0.0
 10
37.50051037674326
 20
132.4526748063912
 30
0.0
 10
36.43898667127831
 20
132.5695405770892
 30
0.0
 10
35.44056169928576
 20
132.7278340837843
 30
0.0
 10
34.5335576438219
 20
132.9112459522983
 30
0.0
 10
33.73406560855798
 20
133.1035353157355
 30
0.0
 10
33.08097817656127
 20
133.2816001622425
 30
0.0
 10
32.6006798519903
 20
133.4240235352574
 30
0.0
 10
32.30846274371211
 20
133.5155697693256
 30
0.0
 10
32.27773581617992
 20
133.5254080217271
 30
0.0
 10
32.26332064414605
 20
133.5300235206484
 30
0.0
  0
SPLINE
  5
A7
330
1F
100
AcDbEntity
  8
0
  6
Continuous
 62
     7
370
    25
100
AcDbSpline
210
0.0
220
0.0
230
1.0
 70
     8
 71
     3
 72
    26
 73
    22
 74
     0
 42
0.00000001
 43
0.00000001
 40
0.0
 40
0.0
 40
0.0
 40
0.0
 40
0.0511331702582496
 40
0.1037933502116473
 40
0.1549148013619596
 40
0.2074417768953689
 40
0.2600413000836436
 40
0.3140886931757431
 40
0.3679559167468817
 40
0.4234801630950363
 40
0.4756383272155059
 40
0.5294418203860601
 40
0.5795304303166957
 40
0.6310342995611095
 40
0.6819291980775328
 40
0.7341721164585325
 40
0.7874318086195184
 40
0.8422062946748826
 40
0.8958262704989401
 40
0.9511281357176448
 40
1.0
 40
1.0
 40
1.0
 40
1.0
 10
-35.74114304213838
 20
133.5314365546218
 30
0.0
 10
-35.75884180422015
 20
133.5257725290652
 30
0.0
 10
-35.79476787338011
 20
133.5142753309599
 30
0.0
 10
-36.08297012414235
 20
133.4241244465474
 30
0.0
 10
-36.53643320525038
 20
133.2894945294114
 30
0.0
 10
-37.15538296377316
 20
133.119601415697
 30
0.0
 10
-37.93474213080388
 20
132.929405687116
 30
0.0
 10
-38.85466237629225
 20
132.7397100033613
 30
0.0
 10
-39.90564079854093
 20
132.5704891762118
 30
0.0
 10
-41.03241156310929
 20
132.4473148239437
 30
0.0
 10
-42.21153242007021
 20
132.3837805380212
 30
0.0
 10
-43.36795888845796
 20
132.3869429307582
 30
0.0
 10
-44.49948962325676
 20
132.4526748063912
 30
0.0
 10
-45.56101332872173
 20
132.5695405770892
 30
0.0
 10
-46.55943830071426
 20
132.7278340837843
 30
0.0
 10
-47.46644235617811
 20
132.9112459522983
 30
0.0
 10
-48.26593439144206
 20
133.1035353157355
 30
0.0
 10
-48.91902182343873
 20
133.2816001622425
 30
0.0
 10
-49.39932014800971
 20
133.4240235352574
 30
0.0
 10
-49.69153725628792
 20
133.5155697693256
 30
0.0
 10
-49.72226418382012
 20
133.5254080217271
 30
0.0
 10
-49.73667935585398
 20
133.5300235206484
 30
0.0
  0
LINE
  5
A8
330
1F
100
AcDbEntity
  8
0
  6
Continuous
 62
     7
370
    25
100
AcDbLine
 10
46.2588569579
 20
171.0314365546
 30
0.0
 11
32.2588569579
 21
171.0314365546
 31
0.0
  0
LINE
  5
A9
330
1F
100
AcDbEntity
  8
0
  6
Continuous
 62
     7
370
    25
100
AcDbLine
 10
-35.7411430421
 20
171.0314365546
 30
0.0
 11
-49.7411430421
 21
171.0314365546
 31
0.0
  0
INSERT
  5
B5
330
1F
100
AcDbEntity
  8
FORMAT
 62
     7
100
AcDbBlockReference
  2
SW_CENTERMARKSYMBOL_1
 10
-1.7411430421
 20
111.5314365546
 30
0.0
  0
LINE
  5
B6
330
1F
100
AcDbEntity
  8
0
  6
Continuous
 62
     7
370
    25
100
AcDbLine
 10
136.3295369748
 20
245.0778539392
 30
0.0
 11
136.3295369748
 21
281.5778539392
 31
0.0
  0
LINE
  5
B7
330
1F
100
AcDbEntity
  8
0
  6
Continuous
 62
     7
370
    25
100
AcDbLine
 10
136.3295369748
 20
183.5778539392
 30
0.0
 11
136.3295369748
 21
220.0805141728
 31
0.0
  0
LINE
  5
B8
330
1F
100
AcDbEntity
  8
0
  6
Continuous
 62
     7
370
    25
100
AcDbLine
 10
92.3295369748
 20
281.5778539392
 30
0.0
 11
92.3295369748
 21
183.5778539392
 31
0.0
  0
LINE
  5
B9
330
1F
100
AcDbEntity
  8
0
  6
Continuous
 62
     7
370
    25
100
AcDbLine
 10
136.3280402381
 20
220.0778539392
 30
0.0
 11
204.3295369748
 21
220.0778539392
 31
0.0
  0
LINE
  5
BA
330
1F
100
AcDbEntity
  8
0
  6
Continuous
 62
     7
370
    25
100
AcDbLine
 10
204.3295369748
 20
245.0778539392
 30
0.0
 11
136.3295369748
 21
245.0778539392
 31
0.0
  0
SPLINE
  5
BB
330
1F
100
AcDbEntity
  8
0
  6
Continuous
 62
     7
370
    25
100
AcDbSpline
210
0.0
220
0.0
230
1.0
 70
     8
 71
     3
 72
    29
 73
    25
 74
     0
 42
0.00000001
 43
0.00000001
 40
0.0
 40
0.0
 40
0.0
 40
0.0
 40
0.0474820841763994
 40
0.0964615347927677
 40
0.1439160886467405
 40
0.1925809757747349
 40
0.2435075478829206
 40
0.2956418317176515
 40
0.3517700231259409
 40
0.3807837446025287
 40
0.4097924736845263
 40
0.4536677252490837
 40
0.4987808146560948
 40
0.5426777451463195
 40
0.5878689600398322
 40
0.6318242771114865
 40
0.6767392600165237
 40
0.7276552180985457
 40
0.7797641254065011
 40
0.836079482579606
 40
0.865205234426491
 40
0.8943275036374201
 40
0.9465746613583403
 40
1.0
 40
1.0
 40
1.0
 40
1.0
 10
136.3295369747899
 20
245.0778539391792
 30
0.0
 10
136.3134236205412
 20
245.0496040659696
 30
0.0
 10
136.2806887709986
 20
244.9922134485448
 30
0.0
 10
136.0234823346682
 20
244.5343072134975
 30
0.0
 10
135.636958149075
 20
243.8214886411315
 30
0.0
 10
135.134958224581
 20
242.8453260086799
 30
0.0
 10
134.5465028094178
 20
241.6042690983714
 30
0.0
 10
133.9045074800563
 20
240.0753526018662
 30
0.0
 10
133.3816042576456
 20
238.5719364296154
 30
0.0
 10
133.009832288858
 20
237.2196845170448
 30
0.0
 10
132.7291847468757
 20
235.9567777996596
 30
0.0
 10
132.4989383714586
 20
234.4243358781291
 30
0.0
 10
132.4036589181754
 20
232.6438465047132
 30
0.0
 10
132.48753471713
 20
230.8443404033988
 30
0.0
 10
132.7371379317299
 20
229.1111328595489
 30
0.0
 10
133.1225751984341
 20
227.4587593643408
 30
0.0
 10
133.6203872151408
 20
225.8611765058698
 30
0.0
 10
134.2064643871362
 20
224.3342492683354
 30
0.0
 10
134.8450626249737
 20
222.9030313244604
 30
0.0
 10
135.3518786379444
 20
221.8842440945864
 30
0.0
 10
135.7107057291013
 20
221.1998175492974
 30
0.0
 10
136.0035577260853
 20
220.6578764935229
 30
0.0
 10
136.2693780126628
 20
220.18319217808
 30
0.0
 10
136.3083365041855
 20
220.1149936312945
 30
0.0
 10
136.3280329311103
 20
220.080514172757
 30
0.0
  0
LINE
  5
BC
330
1F
100
AcDbEntity
  8
0
  6
Continuous
 62
     7
370
    25
100
AcDbLine
 10
92.3295369748
 20
281.5778539392
 30
0.0
 11
136.3295369748
 21
281.5778539392
 31
0.0
  0
LINE
  5
BD
330
1F
100
AcDbEntity
  8
0
  6
Continuous
 62
     7
370
    25
100
AcDbLine
 10
92.3295369748
 20
183.5778539392
 30
0.0
 11
136.3295369748
 21
183.5778539392
 31
0.0
  0
LINE
  5
BE
330
1F
100
AcDbEntity
  8
0
  6
Continuous
 62
     7
370
    25
100
AcDbLine
 10
204.3295369748
 20
245.0778539392
 30
0.0
 11
204.3295369748
 21
220.0778539392
 31
0.0
  0
LINE
  5
BF
330
1F
100
AcDbEntity
  8
0
  6
Continuous
 62
     7
370
    25
100
AcDbLine
 10
243.2247211787
 20
89.5314365546
 30
0.0
 11
341.2247211787
 21
89.5314365546
 31
0.0
  0
LINE
  5
C0
330
1F
100
AcDbEntity
  8
0
  6
Continuous
 62
     7
370
    25
100
AcDbLine
 10
244.2247211787
 20
133.5314365546
 30
0.0
 11
243.2247211787
 21
133.5314365546
 31
0.0
  0
LINE
  5
C1
330
1F
100
AcDbEntity
  8
0
  6
Continuous
 62
     7
370
    25
100
AcDbLine
 10
326.2247211787
 20
133.5314365546
 30
0.0
 11
258.2202574924
 21
133.5314365546
 31
0.0
  0
LINE
  5
C2
330
1F
100
AcDbEntity
  8
0
  6
Continuous
 62
     7
370
    25
100
AcDbLine
 10
341.2247211787
 20
133.5314365546
 30
0.0
 11
340.2202574924
 21
133.5314365546
 31
0.0
  0
LINE
  5
C3
330
1F
100
AcDbEntity
  8
0
  6
Continuous
 62
     7
370
    25
100
AcDbLine
 10
258.2247211787
 20
133.5300303083
 30
0.0
 11
258.2247211787
 21
171.0314365546
 31
0.0
  0
LINE
  5
C4
330
1F
100
AcDbEntity
  8
0
  6
Continuous
 62
     7
370
    25
100
AcDbLine
 10
244.2247211787
 20
171.0314365546
 30
0.0
 11
244.2247211787
 21
133.5314365546
 31
0.0
  0
LINE
  5
C5
330
1F
100
AcDbEntity
  8
0
  6
Continuous
 62
     7
370
    25
100
AcDbLine
 10
340.2247211787
 20
133.5300303083
 30
0.0
 11
340.2247211787
 21
171.0314365546
 31
0.0
  0
LINE
  5
C6
330
1F
100
AcDbEntity
  8
0
  6
Continuous
 62
     7
370
    25
100
AcDbLine
 10
326.2247211787
 20
171.0314365546
 30
0.0
 11
326.2247211787
 21
133.5314365546
 31
0.0
  0
LINE
  5
C7
330
1F
100
AcDbEntity
  8
0
  6
Continuous
 62
     7
370
    25
100
AcDbLine
 10
341.2247211787
 20
133.5314365546
 30
0.0
 11
341.2247211787
 21
89.5314365546
 31
0.0
  0
LINE
  5
C8
330
1F
100
AcDbEntity
  8
0
  6
Continuous
 62
     7
370
    25
100
AcDbLine
 10
243.2247211787
 20
133.5314365546
 30
0.0
 11
243.2247211787
 21
89.5314365546
 31
0.0
  0
SPLINE
  5
C9
330
1F
100
AcDbEntity
  8
0
  6
Continuous
 62
     7
370
    25
100
AcDbSpline
210
0.0
220
0.0
230
1.0
 70
     8
 71
     3
 72
    27
 73
    23
 74
     0
 42
0.00000001
 43
0.00000001
 40
0.0
 40
0.0
 40
0.0
 40
0.0
 40
0.0026160515322937
 40
0.0556780802630228
 40
0.1059001752218258
 40
0.1575133375507164
 40
0.2090209802033005
 40
0.261907954497671
 40
0.3154822174549665
 40
0.3706154887078399
 40
0.4239207236444004
 40
0.4789230844907443
 40
0.5297639097279441
 40
0.5821307240020357
 40
0.6322524185796022
 40
0.68372159775016
 40
0.7358729474126224
 40
0.78943723084984
 40
0.8432928032808178
 40
0.8987738759031307
 40
0.9486847287901331
 40
1.0
 40
1.0
 40
1.0
 40
1.0
 10
258.2202574923994
 20
133.5300235206484
 30
0.0
 10
258.221733748539
 20
133.5304908151228
 30
0.0
 10
258.2531532778618
 20
133.5404363605111
 30
0.0
 10
258.1380608088502
 20
133.5037536627164
 30
0.0
 10
257.8653736336913
 20
133.4188866461109
 30
0.0
 10
257.4057714924924
 20
133.2826616295723
 30
0.0
 10
256.783687281964
 20
133.1127161260409
 30
0.0
 10
256.0050414972611
 20
132.923506621705
 30
0.0
 10
255.0754291054235
 20
132.7330331008876
 30
0.0
 10
254.0294122807274
 20
132.5664336538397
 30
0.0
 10
252.8880611973279
 20
132.4435324388009
 30
0.0
 10
251.723854968274
 20
132.3830235897408
 30
0.0
 10
250.5524083546188
 20
132.3885040371196
 30
0.0
 10
249.4362280250783
 20
132.4551142252662
 30
0.0
 10
248.367262536118
 20
132.5747721164495
 30
0.0
 10
247.3771070648349
 20
132.7331268552153
 30
0.0
 10
246.469478065607
 20
132.9179168343838
 30
0.0
 10
245.6783245763907
 20
133.1091922434056
 30
0.0
 10
245.0252481828962
 20
133.2877218890797
 30
0.0
 10
244.5642006963325
 20
133.4248731258529
 30
0.0
 10
244.2775604881534
 20
133.5145223168059
 30
0.0
 10
244.2424964421821
 20
133.5257465666741
 30
0.0
 10
244.2247211786838
 20
133.5314365546218
 30
0.0
  0
SPLINE
  5
CA
330
1F
100
AcDbEntity
  8
0
  6
Continuous
 62
     7
370
    25
100
AcDbSpline
210
0.0
220
0.0
230
1.0
 70
     8
 71
     3
 72
    27
 73
    23
 74
     0
 42
0.00000001
 43
0.00000001
 40
0.0
 40
0.0
 40
0.0
 40
0.0
 40
0.0026160515322937
 40
0.0556780802630228
 40
0.1059001752218257
 40
0.1575133375507164
 40
0.2090209802033005
 40
0.261907954497671
 40
0.3154822174549665
 40
0.3706154887078399
 40
0.4239207236444004
 40
0.4789230844907442
 40
0.5297639097279441
 40
0.5821307240020357
 40
0.6322524185796022
 40
0.68372159775016
 40
0.7358729474126224
 40
0.7894372308498399
 40
0.8432928032808178
 40
0.8987738759031307
 40
0.9486847287901331
 40
1.0
 40
1.0
 40
1.0
 40
1.0
 10
340.2202574923994
 20
133.5300235206484
 30
0.0
 10
340.221733748539
 20
133.5304908151228
 30
0.0
 10
340.2531532778618
 20
133.5404363605111
 30
0.0
 10
340.1380608088502
 20
133.5037536627163
 30
0.0
 10
339.8653736336914
 20
133.4188866461109
 30
0.0
 10
339.4057714924924
 20
133.2826616295723
 30
0.0
 10
338.783687281964
 20
133.1127161260409
 30
0.0
 10
338.0050414972611
 20
132.9235066217049
 30
0.0
 10
337.0754291054236
 20
132.7330331008877
 30
0.0
 10
336.0294122807274
 20
132.5664336538397
 30
0.0
 10
334.8880611973279
 20
132.4435324388009
 30
0.0
 10
333.723854968274
 20
132.3830235897408
 30
0.0
 10
332.5524083546188
 20
132.3885040371196
 30
0.0
 10
331.4362280250783
 20
132.4551142252662
 30
0.0
 10
330.367262536118
 20
132.5747721164495
 30
0.0
 10
329.3771070648349
 20
132.7331268552153
 30
0.0
 10
328.4694780656071
 20
132.9179168343838
 30
0.0
 10
327.6783245763907
 20
133.1091922434056
 30
0.0
 10
327.0252481828962
 20
133.2877218890797
 30
0.0
 10
326.5642006963325
 20
133.4248731258529
 30
0.0
 10
326.2775604881534
 20
133.5145223168059
 30
0.0
 10
326.2424964421821
 20
133.5257465666741
 30
0.0
 10
326.2247211786838
 20
133.5314365546218
 30
0.0
  0
LINE
  5
CB
330
1F
100
AcDbEntity
  8
0
  6
Continuous
 62
     7
370
    25
100
AcDbLine
 10
258.2247211787
 20
171.0314365546
 30
0.0
 11
244.2247211787
 21
171.0314365546
 31
0.0
  0
LINE
  5
CC
330
1F
100
AcDbEntity
  8
0
  6
Continuous
 62
     7
370
    25
100
AcDbLine
 10
340.2247211787
 20
171.0314365546
 30
0.0
 11
326.2247211787
 21
171.0314365546
 31
0.0
  0
LINE
  5
CD
330
1F
100
AcDbEntity
  8
0
  6
Continuous
 62
     7
370
    25
100
AcDbLine
 10
92.3295369748
 20
48.7131191701
 30
0.0
 11
92.3295369748
 21
-49.2868808299
 31
0.0
  0
LINE
  5
CE
330
1F
100
AcDbEntity
  8
0
  6
Continuous
 62
     7
370
    25
100
AcDbLine
 10
136.3295369748
 20
12.2104589365
 30
0.0
 11
136.3295369748
 21
48.7131191701
 31
0.0
  0
LINE
  5
CF
330
1F
100
AcDbEntity
  8
0
  6
Continuous
 62
     7
370
    25
100
AcDbLine
 10
136.3295369748
 20
-49.2868808299
 30
0.0
 11
136.3295369748
 21
-12.7868808299
 31
0.0
  0
LINE
  5
D0
330
1F
100
AcDbEntity
  8
0
  6
Continuous
 62
     7
370
    25
100
AcDbLine
 10
136.3295369748
 20
-12.7868808299
 30
0.0
 11
204.3295369748
 21
-12.7868808299
 31
0.0
  0
LINE
  5
D1
330
1F
100
AcDbEntity
  8
0
  6
Continuous
 62
     7
370
    25
100
AcDbLine
 10
204.3295369748
 20
12.2131191701
 30
0.0
 11
136.3280402381
 21
12.2131191701
 31
0.0
  0
CIRCLE
  5
D2
330
1F
100
AcDbEntity
  8
0
  6
Continuous
 62
     7
370
    25
100
AcDbCircle
 10
114.3295369748
 20
40.7131191701
 30
0.0
 40
5.0
  0
CIRCLE
  5
D3
330
1F
100
AcDbEntity
  8
0
  6
Continuous
 62
     7
370
    25
100
AcDbCircle
 10
114.3295369748
 20
40.7131191701
 30
0.0
 40
7.000000000000014
  0
CIRCLE
  5
D4
330
1F
100
AcDbEntity
  8
0
  6
Continuous
 62
     7
370
    25
100
AcDbCircle
 10
114.3295369748
 20
-41.2868808299
 30
0.0
 40
7.000000000000021
  0
CIRCLE
  5
D5
330
1F
100
AcDbEntity
  8
0
  6
Continuous
 62
     7
370
    25
100
AcDbCircle
 10
114.3295369748
 20
-41.2868808299
 30
0.0
 40
5.000000000000007
  0
SPLINE
  5
D6
330
1F
100
AcDbEntity
  8
0
  6
Continuous
 62
     7
370
    25
100
AcDbSpline
210
0.0
220
0.0
230
1.0
 70
     8
 71
     3
 72
    31
 73
    27
 74
     0
 42
0.00000001
 43
0.00000001
 40
0.0
 40
0.0
 40
0.0
 40
0.0
 40
0.0007732855918333
 40
0.0469174038736604
 40
0.0944329062214676
 40
0.1403048937477465
 40
0.1872772313158182
 40
0.2379615594414446
 40
0.2898439805081993
 40
0.3458372834953027
 40
0.3747594393109924
 40
0.4036768532761962
 40
0.4478001741287914
 40
0.4931616972838442
 40
0.5373106625561966
 40
0.582790420365394
 40
0.6265084906373497
 40
0.6711898813654084
 40
0.721623470863486
 40
0.7732209662556325
 40
0.829462292805888
 40
0.8585311947868641
 40
0.8875966936661402
 40
0.933879830007701
 40
0.9814729999821057
 40
0.9999999999999999
 40
0.9999999999999999
 40
0.9999999999999999
 40
0.9999999999999999
 10
136.3280329311103
 20
12.21045893648665
 30
0.0
 10
136.3285342384756
 20
12.21134563559978
 30
0.0
 10
136.3589499611636
 20
12.26514415563492
 30
0.0
 10
136.259382735957
 20
12.08986657350698
 30
0.0
 10
136.0414639720262
 20
11.70157089205124
 30
0.0
 10
135.6677272418424
 20
11.01434828387498
 30
0.0
 10
135.1881474460083
 20
10.08653689844077
 30
0.0
 10
134.6129864566403
 20
8.88616990054895
 30
0.0
 10
133.9736262918651
 20
7.387102737060518
 30
0.0
 10
133.4461876804662
 20
5.907535675249722
 30
0.0
 10
133.0654488603281
 20
4.572898770933657
 30
0.0
 10
132.772717959063
 20
3.320138690562978
 30
0.0
 10
132.5240137351083
 20
1.791815126585796
 30
0.0
 10
132.4055828119454
 20
0.0053298680472188
 30
0.0
 10
132.4678557597201
 20
-1.807801875461644
 30
0.0
 10
132.7000841232456
 20
-3.553659846883642
 30
0.0
 10
133.0715344762469
 20
-5.216309606025617
 30
0.0
 10
133.556743003719
 20
-6.819340463320567
 30
0.0
 10
134.1337341831476
 20
-8.354300262465852
 30
0.0
 10
134.7700829205023
 20
-9.802765130373684
 30
0.0
 10
135.2829487825452
 20
-10.84489179933233
 30
0.0
 10
135.6514136749519
 20
-11.55335215086454
 30
0.0
 10
135.9419115957695
 20
-12.09413301280815
 30
0.0
 10
136.1970535735577
 20
-12.55358529622213
 30
0.0
 10
136.3177783643717
 20
-12.76617196094026
 30
0.0
 10
136.3269633296769
 20
-12.78234821276481
 30
0.0
 10
136.3295369747899
 20
-12.7868808299356
 30
0.0
  0
LINE
  5
D7
330
1F
100
AcDbEntity
  8
0
  6
Continuous
 62
     7
370
    25
100
AcDbLine
 10
136.3295369748
 20
-49.2868808299
 30
0.0
 11
92.3295369748
 21
-49.2868808299
 31
0.0
  0
LINE
  5
D8
330
1F
100
AcDbEntity
  8
0
  6
Continuous
 62
     7
370
    25
100
AcDbLine
 10
136.3295369748
 20
48.7131191701
 30
0.0
 11
92.3295369748
 21
48.7131191701
 31
0.0
  0
LINE
  5
D9
330
1F
100
AcDbEntity
  8
0
  6
Continuous
 62
     7
370
    25
100
AcDbLine
 10
204.3295369748
 20
12.2131191701
 30
0.0
 11
204.3295369748
 21
-12.7868808299
 31
0.0
  0
INSERT
  5
E5
330
1F
100
AcDbEntity
  8
FORMAT
 62
     7
100
AcDbBlockReference
  2
SW_CENTERMARKSYMBOL_2
 10
114.3295369748
 20
40.7131191701
 30
0.0
  0
INSERT
  5
F1
330
1F
100
AcDbEntity
  8
FORMAT
 62
     7
100
AcDbBlockReference
  2
SW_CENTERMARKSYMBOL_3
 10
114.3295369748
 20
-41.2868808299
 30
0.0
  0
LINE
  5
F2
330
1F
100
AcDbEntity
  8
0
  6
Continuous
 62
     7
370
    25
100
AcDbLine
 10
303.5199473386
 20
-17.4038728578
 30
0.0
 11
352.9160689201
 21
11.1119011559
 31
0.0
  0
LINE
  5
F3
330
1F
100
AcDbEntity
  8
0
  6
Continuous
 62
     7
370
    25
100
AcDbLine
 10
340.4170847622
 20
32.7631227154
 30
0.0
 11
291.0214735502
 21
4.2476433317
 31
0.0
  0
LINE
  5
F4
330
1F
100
AcDbEntity
  8
0
  6
Continuous
 62
     7
370
    25
100
AcDbLine
 10
328.6743048715
 20
-15.7497768637
 30
0.0
 11
317.5297704863
 21
-9.3161741062
 31
0.0
  0
LINE
  5
F5
330
1F
100
AcDbEntity
  8
0
  6
Continuous
 62
     7
370
    25
100
AcDbLine
 10
292.5277386371
 20
5.1171916575
 30
0.0
 11
259.3778403152
 21
24.2542206156
 31
0.0
  0
LINE
  5
F6
330
1F
100
AcDbEntity
  8
0
  6
Continuous
 62
     7
370
    25
100
AcDbLine
 10
237.3796281972
 20
-13.8519293291
 30
0.0
 11
306.6760927535
 21
-53.8559268084
 31
0.0
  0
LINE
  5
F7
330
1F
100
AcDbEntity
  8
0
  6
Continuous
 62
     7
370
    25
100
AcDbLine
 10
261.0355885057
 20
23.2972229555
 30
0.0
 11
261.0355885057
 21
50.5196915032
 31
0.0
  0
LINE
  5
F8
330
1F
100
AcDbEntity
  8
0
  6
Continuous
 62
     7
370
    25
100
AcDbLine
 10
247.0355885057
 20
50.5196915032
 30
0.0
 11
247.0355885057
 21
22.3225788622
 31
0.0
  0
LINE
  5
F9
330
1F
100
AcDbEntity
  8
0
  6
Continuous
 62
     7
370
    25
100
AcDbLine
 10
319.018344563
 20
-10.1755096292
 30
0.0
 11
319.018344563
 21
-8.4568385832
 31
0.0
  0
LINE
  5
FA
330
1F
100
AcDbEntity
  8
0
  6
Continuous
 62
     7
370
    25
100
AcDbLine
 10
305.018344563
 20
17.0469589184
 30
0.0
 11
305.018344563
 21
12.3278649751
 31
0.0
  0
SPLINE
  5
FB
330
1F
100
AcDbEntity
  8
0
  6
Continuous
 62
     7
370
    25
100
AcDbSpline
210
0.0
220
0.0
230
1.0
 70
     8
 71
     3
 72
    24
 73
    20
 74
     0
 42
0.00000001
 43
0.00000001
 40
0.0
 40
0.0
 40
0.0
 40
0.0
 40
0.0632716538541692
 40
0.128538604518196
 40
0.1917735731875994
 40
0.2566213562330016
 40
0.3244829191424513
 40
0.393953803117794
 40
0.4687467183793148
 40
0.5074085878850426
 40
0.5460638048381731
 40
0.6045292192762589
 40
0.6646440989569478
 40
0.7231384013746694
 40
0.7833573861894286
 40
0.8419294909116196
 40
0.9017803862656606
 40
0.9696278055880905
 40
1.0
 40
1.0
 40
1.0
 40
1.0
 10
289.7444809556295
 20
-0.7178131674532737
 30
0.0
 10
289.7530627704713
 20
-1.255636341543122
 30
0.0
 10
289.770497031105
 20
-2.348243157770677
 30
0.0
 10
289.912413219998
 20
-4.166766322770175
 30
0.0
 10
290.1431381926594
 20
-6.062372169794497
 30
0.0
 10
290.4784218622748
 20
-8.008564234430096
 30
0.0
 10
290.9398807913333
 20
-9.985890721947728
 30
0.0
 10
291.567028816625
 20
-11.97551570959738
 30
0.0
 10
292.260355992124
 20
-13.56882607915094
 30
0.0
 10
292.9536603935634
 20
-14.77255387999842
 30
0.0
 10
293.6482211270462
 20
-15.76137668204848
 30
0.0
 10
294.5690204319268
 20
-16.760111303856
 30
0.0
 10
295.7606111820218
 20
-17.6376156120824
 30
0.0
 10
297.0924832589491
 20
-18.23971471574517
 30
0.0
 10
298.4940887414114
 20
-18.54305402462374
 30
0.0
 10
299.9367085271704
 20
-18.56865895575373
 30
0.0
 10
301.4117668045578
 20
-18.31188130624854
 30
0.0
 10
302.6324592687914
 20
-17.915412002155
 30
0.0
 10
303.2951230723988
 20
-17.49869844255513
 30
0.0
 10
303.5000368682047
 20
-17.36983919779697
 30
0.0
  0
SPLINE
  5
FC
330
1F
100
AcDbEntity
  8
0
  6
Continuous
 62
     7
370
    25
100
AcDbSpline
210
0.0
220
0.0
230
1.0
 70
     8
 71
     3
 72
    14
 73
    10
 74
     0
 42
0.00000001
 43
0.00000001
 40
0.0
 40
0.0
 40
0.0
 40
0.0
 40
0.0913659208017165
 40
0.3167076780140965
 40
0.4331778584742661
 40
0.549634403748993
 40
0.7350767450349507
 40
0.9257679895552333
 40
1.0
 40
1.0
 40
1.0
 40
1.0
 10
291.0406562928057
 20
4.21400304016581
 30
0.0
 10
290.9547126605668
 20
4.174539215342822
 30
0.0
 10
290.6568006166929
 20
4.037743173497325
 30
0.0
 10
290.3804913309112
 20
3.578564177834504
 30
0.0
 10
290.1366692681914
 20
2.956060226201271
 30
0.0
 10
289.9604789355179
 20
2.266189544078372
 30
0.0
 10
289.8156839062007
 20
1.279158214236049
 30
0.0
 10
289.7508166403933
 20
0.1943915383111261
 30
0.0
 10
289.7458676674559
 20
-0.5181559716133541
 30
0.0
 10
289.7444809556295
 20
-0.7178131674532737
 30
0.0
  0
LWPOLYLINE
  5
FD
330
1F
100
AcDbEntity
  8
0
  6
Continuous
 62
     7
370
    25
100
AcDbPolyline
 90
       66
 70
   128
 43
0.0
 10
355.505411606
 20
16.8349612367
 10
355.4641486966
 20
17.843876249
 10
355.3407452292
 20
18.8910124348
 10
355.1363533887
 20
19.9665929655
 10
354.8528815267
 20
21.0605754357
 10
354.4929763434
 20
22.1627456256
 10
354.0599981767
 20
23.2628128693
 10
353.5579896271
 20
24.3505061353
 10
352.991637813
 20
25.4156699245
 10
352.3662306089
 20
26.4483590897
 10
351.6876072732
 20
27.4389316905
 10
350.9621039292
 20
28.3781390173
 10
350.1964944062
 20
29.2572119443
 10
349.397926994
 20
30.0679428046
 10
348.5738577012
 20
30.8027620224
 10
347.731980641
 20
31.4548087888
 10
346.8801561926
 20
32.0179951188
 10
346.0263376113
 20
32.4870626933
 10
345.1784967712
 20
32.8576319549
 10
344.3445497337
 20
33.1262429981
 10
343.5322828378
 20
33.2903878739
 10
342.7492800004
 20
33.3485340061
 10
342.0028519082
 20
33.3001384996
 10
341.2999677591
 20
33.1456532105
 10
340.6471901931
 20
32.8865205261
 10
340.0506140184
 20
32.5251598986
 10
339.5158093059
 20
32.0649452547
 10
339.0477693833
 20
31.5101734946
 10
338.6508642131
 20
30.8660243728
 10
338.328799592
 20
30.1385121359
 10
338.0845825507
 20
29.3344293699
 10
337.9204932777
 20
28.4612835788
 10
337.8380638304
 20
27.5272270895
 10
337.8380638304
 20
26.5409809359
 10
337.9204932777
 20
25.5117534327
 10
338.0845825507
 20
24.4491541995
 10
338.328799592
 20
23.3631044393
 10
338.6508642131
 20
22.263744306
 10
339.0477693833
 20
21.161338229
 10
339.5158093059
 20
20.0661790767
 10
340.0506140184
 20
18.9884920551
 10
340.6471901931
 20
17.9383392376
 10
341.2999677591
 20
16.925525618
 10
342.0028519082
 20
15.9595075643
 10
342.7492800004
 20
15.0493045267
 10
343.5322828378
 20
14.2034148257
 10
344.3445497337
 20
13.4297363057
 10
345.1784967712
 20
12.7354925944
 10
346.0263376113
 20
12.1271656583
 10
346.8801561926
 20
11.6104352822
 10
347.731980641
 20
11.1901260383
 10
348.5738577012
 20
10.8701622408
 10
349.397926994
 20
10.6535313054
 10
350.1964944062
 20
10.542255857
 10
350.9621039292
 20
10.5373748442
 10
351.6876072732
 20
10.6389338399
 10
352.3662306089
 20
10.845984615
 10
352.991637813
 20
11.1565939922
 10
353.5579896271
 20
11.5678618955
 10
354.0599981767
 20
12.0759484273
 10
354.4929763434
 20
12.6761097206
 10
354.8528815267
 20
13.3627422309
 10
355.1363533887
 20
14.1294350557
 10
355.3407452292
 20
14.9690297905
 10
355.4641486966
 20
15.8736873655
 10
355.505411606
 20
16.8349612367
  0
LWPOLYLINE
  5
FE
330
1F
100
AcDbEntity
  8
0
  6
Continuous
 62
     7
370
    25
100
AcDbPolyline
 90
       57
 70
   128
 43
0.0
 10
353.3840912624
 20
18.0595734045
 10
353.3418529417
 20
18.9524809281
 10
353.2156691509
 20
19.8829269486
 10
353.0071267245
 20
20.8392105674
 10
352.7188482044
 20
21.8093059631
 10
352.3544588603
 20
22.7810136234
 10
351.9185410996
 20
23.7421137605
 10
351.4165768411
 20
24.6805199826
 10
350.8548785766
 20
25.584431287
 10
350.2405099877
 20
26.4424804646
 10
349.5811971158
 20
27.243877049
 10
348.8852312029
 20
27.9785430134
 10
348.161364424
 20
28.6372395068
 10
347.418699824
 20
29.2116830388
 10
346.6665768411
 20
29.6946496485
 10
345.9144538583
 20
30.0800657508
 10
345.1717892583
 20
30.3630845144
 10
344.4479224794
 20
30.5401468141
 10
343.7519565665
 20
30.609025989
 10
343.0926436946
 20
30.5688558432
 10
342.4782751056
 20
30.4201415398
 10
341.9165768411
 20
30.1647532474
 10
341.4146125827
 20
29.805902622
 10
340.978694822
 20
29.3481024183
 10
340.6143054779
 20
28.7971097396
 10
340.3260269578
 20
28.1598536384
 10
340.1174845314
 20
27.4443479801
 10
339.9913007406
 20
26.6595906633
 10
339.9490624199
 20
25.8154504668
 10
339.9913007406
 20
24.9225429432
 10
340.1174845314
 20
23.9920969227
 10
340.3260269578
 20
23.0358133039
 10
340.6143054779
 20
22.0657179081
 10
340.978694822
 20
21.0940102479
 10
341.4146125827
 20
20.1329101107
 10
341.9165768411
 20
19.1945038886
 10
342.4782751056
 20
18.2905925842
 10
343.0926436946
 20
17.4325434067
 10
343.7519565665
 20
16.6311468222
 10
344.4479224794
 20
15.8964808579
 10
345.1717892583
 20
15.2377843644
 10
345.9144538583
 20
14.6633408325
 10
346.6665768411
 20
14.1803742227
 10
347.418699824
 20
13.7949581205
 10
348.161364424
 20
13.5119393569
 10
348.8852312029
 20
13.3348770571
 10
349.5811971158
 20
13.2659978823
 10
350.2405099877
 20
13.306168028
 10
350.8548785766
 20
13.4548823314
 10
351.4165768411
 20
13.7102706238
 10
351.9185410996
 20
14.0691212493
 10
352.3544588603
 20
14.526921453
 10
352.7188482044
 20
15.0779141317
 10
353.0071267245
 20
15.7151702328
 10
353.2156691509
 20
16.4306758912
 10
353.3418529417
 20
17.2154332079
 10
353.3840912624
 20
18.0595734045
  0
LWPOLYLINE
  5
FF
330
1F
100
AcDbEntity
  8
0
  6
Continuous
 62
     7
370
    25
100
AcDbPolyline
 90
       87
 70
   128
 43
0.0
 10
263.9350834423
 20
14.1816348733
 10
263.8935835155
 20
15.4689578524
 10
263.7693051549
 20
16.7014976108
 10
263.5629114396
 20
17.8726780155
 10
263.2755035692
 20
18.9762503124
 10
262.9086149891
 20
20.0063264658
 10
262.4642032086
 20
20.9574105737
 10
261.9446393568
 20
21.8244281908
 10
261.3526955318
 20
22.6027534032
 10
260.6915300098
 20
23.2882335089
 10
259.9646703951
 20
23.8772111751
 10
259.1759947981
 20
24.366543951
 10
258.3297111445
 20
24.7536210346
 10
257.4303347237
 20
25.0363772022
 10
256.482664098
 20
25.2133038272
 10
255.4917555002
 20
25.2834569297
 10
254.4628958565
 20
25.2464622123
 10
253.4015745782
 20
25.102517058
 10
252.3134542735
 20
24.8523894763
 10
251.2043405351
 20
24.4974140063
 10
250.0801509646
 20
24.0394845956
 10
248.9468835999
 20
23.4810444957
 10
247.8105849125
 20
22.8250732263
 10
246.6773175478
 20
22.0750706778
 10
245.5531279773
 20
21.2350384383
 10
244.4440142389
 20
20.3094584434
 10
243.3558939342
 20
19.3032690627
 10
242.2945726559
 20
18.2218387519
 10
241.2657130122
 20
17.0709374097
 10
240.2748044145
 20
15.8567055927
 10
239.3271337887
 20
14.5856217531
 10
238.4277573679
 20
13.2644676729
 10
237.5814737143
 20
11.9002922809
 10
236.7927981174
 20
10.5003740431
 10
236.0659385026
 20
9.072182129
 10
235.4047729807
 20
7.6233365603
 10
234.8128291556
 20
6.161567555
 10
234.2932653038
 20
4.6946742833
 10
233.8488535233
 20
3.2304832555
 10
233.4819649432
 20
1.7768065641
 10
233.1945570728
 20
0.3414002033
 10
232.9881633575
 20
-1.0680773129
 10
232.863884997
 20
-2.444105812
 10
232.8223850701
 20
-3.7793435868
 10
232.863884997
 20
-5.0666665659
 10
232.9881633575
 20
-6.2992063243
 10
233.1945570728
 20
-7.470386729
 10
233.4819649432
 20
-8.5739590259
 10
233.8488535233
 20
-9.6040351793
 10
234.2932653038
 20
-10.5551192871
 10
234.8128291556
 20
-11.4221369043
 10
235.4047729807
 20
-12.2004621166
 10
236.0659385026
 20
-12.8859422224
 10
236.7927981174
 20
-13.4749198886
 10
237.5814737143
 20
-13.9642526645
 10
238.4277573679
 20
-14.3513297481
 10
239.3271337887
 20
-14.6340859157
 10
240.2748044145
 20
-14.8110125407
 10
241.2657130122
 20
-14.8811656431
 10
242.2945726559
 20
-14.8441709258
 10
243.3558939342
 20
-14.7002257714
 10
244.4440142389
 20
-14.4500981898
 10
245.5531279773
 20
-14.0951227198
 10
246.6773175478
 20
-13.6371933091
 10
247.8105849125
 20
-13.0787532092
 10
248.9468835999
 20
-12.4227819398
 10
250.0801509646
 20
-11.6727793913
 10
251.2043405351
 20
-10.8327471518
 10
252.3134542735
 20
-9.9071671568
 10
253.4015745782
 20
-8.9009777761
 10
254.4628958565
 20
-7.8195474654
 10
255.4917555002
 20
-6.6686461232
 10
256.482664098
 20
-5.4544143062
 10
257.4303347237
 20
-4.1833304665
 10
258.3297111445
 20
-2.8621763864
 10
259.1759947981
 20
-1.4980009944
 10
259.9646703951
 20
-0.0980827566
 10
260.6915300098
 20
1.3301091575
 10
261.3526955318
 20
2.7789547262
 10
261.9446393568
 20
4.2407237315
 10
262.4642032086
 20
5.7076170032
 10
262.9086149891
 20
7.1718080311
 10
263.2755035692
 20
8.6254847224
 10
263.5629114396
 20
10.0608910832
 10
263.7693051549
 20
11.4703685994
 10
263.8935835155
 20
12.8463970985
 10
263.9350834423
 20
14.1816348733
  0
LWPOLYLINE
  5
100
330
1F
100
AcDbEntity
  8
0
  6
Continuous
 62
     7
370
    25
100
AcDbPolyline
 90
       12
 70
   128
 43
0.0
 10
333.2315479986
 20
-25.822362606
 10
333.1900480717
 20
-24.5350396269
 10
333.0657697112
 20
-23.3024998685
 10
332.8593759959
 20
-22.1313194638
 10
332.5719681255
 20
-21.0277471669
 10
332.2050795454
 20
-19.9976710135
 10
331.7606677649
 20
-19.0465869056
 10
331.2411039131
 20
-18.1795692885
 10
330.649160088
 20
-17.4012440761
 10
329.9879945661
 20
-16.7157639704
 10
329.2611349514
 20
-16.1267863042
 10
328.6743048715
 20
-15.7497768637
  0
LWPOLYLINE
  5
101
330
1F
100
AcDbEntity
  8
0
  6
Continuous
 62
     7
370
    25
100
AcDbPolyline
 90
       34
 70
   128
 43
0.0
 10
306.6760927535
 20
-53.8559268084
 10
306.8779382706
 20
-53.9682501438
 10
307.7242219242
 20
-54.3553272274
 10
308.623598345
 20
-54.638083395
 10
309.5712689707
 20
-54.81501002
 10
310.5621775685
 20
-54.8851631225
 10
311.5910372122
 20
-54.8481684051
 10
312.6523584905
 20
-54.7042232507
 10
313.7404787952
 20
-54.4540956691
 10
314.8495925336
 20
-54.0991201991
 10
315.9737821041
 20
-53.6411907884
 10
317.1070494688
 20
-53.0827506885
 10
318.2433481562
 20
-52.4267794191
 10
319.3766155209
 20
-51.6767768706
 10
320.5008050914
 20
-50.8367446311
 10
321.6099188298
 20
-49.9111646362
 10
322.6980391345
 20
-48.9049752555
 10
323.7593604128
 20
-47.8235449447
 10
324.7882200565
 20
-46.6726436025
 10
325.7791286543
 20
-45.4584117855
 10
326.72679928
 20
-44.1873279458
 10
327.6261757008
 20
-42.8661738657
 10
328.4724593544
 20
-41.5019984737
 10
329.2611349514
 20
-40.1020802359
 10
329.9879945661
 20
-38.6738883218
 10
330.649160088
 20
-37.2250427531
 10
331.2411039131
 20
-35.7632737478
 10
331.7606677649
 20
-34.2963804761
 10
332.2050795454
 20
-32.8321894482
 10
332.5719681255
 20
-31.3785127569
 10
332.8593759959
 20
-29.9431063961
 10
333.0657697112
 20
-28.5336288799
 10
333.1900480717
 20
-27.1576003808
 10
333.2315479986
 20
-25.822362606
  0
LWPOLYLINE
  5
102
330
1F
100
AcDbEntity
  8
0
  6
Continuous
 62
     7
370
    25
100
AcDbPolyline
 90
       66
 70
   128
 43
0.0
 10
257.217569021
 20
10.3036963422
 10
257.1763061117
 20
11.2649702134
 10
257.0529026443
 20
12.1696277884
 10
256.8485108038
 20
13.0092225232
 10
256.5650389417
 20
13.775915348
 10
256.2051337585
 20
14.4625478583
 10
255.7721555918
 20
15.0627091516
 10
255.2701470422
 20
15.5707956834
 10
254.7037952281
 20
15.9820635867
 10
254.078388024
 20
16.2926729639
 10
253.3997646883
 20
16.499723739
 10
252.6742613443
 20
16.6012827347
 10
251.9086518213
 20
16.5964017219
 10
251.110084409
 20
16.4851262734
 10
250.2860151163
 20
16.2684953381
 10
249.4441380561
 20
15.9485315406
 10
248.5923136077
 20
15.5282222967
 10
247.7384950264
 20
15.0114919206
 10
246.8906541863
 20
14.4031649845
 10
246.0567071488
 20
13.7089212732
 10
245.2444402528
 20
12.9352427532
 10
244.4614374155
 20
12.0893530522
 10
243.7150093233
 20
11.1791500146
 10
243.0121251742
 20
10.2131319609
 10
242.3593476082
 20
9.2003183413
 10
241.7627714334
 20
8.1501655238
 10
241.227966721
 20
7.0724785022
 10
240.7599267984
 20
5.9773193499
 10
240.3630216282
 20
4.8749132729
 10
240.0409570071
 20
3.7755531396
 10
239.7967399657
 20
2.6895033793
 10
239.6326506927
 20
1.6269041462
 10
239.5502212455
 20
0.5976766429
 10
239.5502212455
 20
-0.3885695106
 10
239.6326506927
 20
-1.3226259999
 10
239.7967399657
 20
-2.195771791
 10
240.0409570071
 20
-2.9998545571
 10
240.3630216282
 20
-3.7273667939
 10
240.7599267984
 20
-4.3715159157
 10
241.227966721
 20
-4.9262876758
 10
241.7627714334
 20
-5.3865023197
 10
242.3593476082
 20
-5.7478629472
 10
243.0121251742
 20
-6.0069956316
 10
243.7150093233
 20
-6.1614809208
 10
244.4614374155
 20
-6.2098764272
 10
245.2444402528
 20
-6.1517302951
 10
246.0567071488
 20
-5.9875854192
 10
246.8906541863
 20
-5.718974376
 10
247.7384950264
 20
-5.3484051145
 10
248.5923136077
 20
-4.8793375399
 10
249.4441380561
 20
-4.3161512099
 10
250.2860151163
 20
-3.6641044435
 10
251.110084409
 20
-2.9292852257
 10
251.9086518213
 20
-2.1185543654
 10
252.6742613443
 20
-1.2394814384
 10
253.3997646883
 20
-0.3002741116
 10
254.078388024
 20
0.6902984891
 10
254.7037952281
 20
1.7229876544
 10
255.2701470422
 20
2.7881514436
 10
255.7721555918
 20
3.8758447096
 10
256.2051337585
 20
4.9759119533
 10
256.5650389417
 20
6.0780821432
 10
256.8485108038
 20
7.1720646134
 10
257.0529026443
 20
8.2476451441
 10
257.1763061117
 20
9.2947813298
 10
257.217569021
 20
10.3036963422
  0
ARC
  5
103
330
1F
100
AcDbEntity
  8
0
  6
Continuous
 62
     7
370
    25
100
AcDbCircle
 10
250.5538899889
 20
50.1595108952
 30
0.0
 40
3.536689892661192
100
AcDbArc
 50
114.5250616912
 51
174.1547973512
  0
LWPOLYLINE
  5
104
330
1F
100
AcDbEntity
  8
0
  6
Continuous
 62
     7
370
    25
100
AcDbPolyline
 90
       19
 70
   128
 43
0.0
 10
261.0355885057
 20
50.5196915032
 10
260.9757025353
 20
51.0471496713
 10
260.7970692897
 20
51.5655828839
 10
260.5027452333
 20
52.066120605
 10
260.0977663322
 20
52.5401984955
 10
259.5890618877
 20
52.9797049511
 10
258.985335974
 20
53.3771198946
 10
258.2969185088
 20
53.725643446
 10
257.5355885057
 20
54.0193122709
 10
256.7143725323
 20
54.2531016141
 10
255.8473218214
 20
54.4230112753
 10
254.9492718512
 20
54.5261340529
 10
254.0355885057
 20
54.5607054878
 10
253.1219051602
 20
54.5261340529
 10
252.22385519
 20
54.4230112753
 10
251.3568044792
 20
54.2531016141
 10
250.5355885057
 20
54.0193122709
 10
249.7742585026
 20
53.725643446
 10
249.0858410374
 20
53.3771198946
  0
LWPOLYLINE
  5
105
330
1F
100
AcDbEntity
  8
0
  6
Continuous
 62
     7
370
    25
100
AcDbPolyline
 90
       20
 70
   128
 43
0.0
 10
317.5204245488
 20
19.5451621264
 10
316.9680920313
 20
19.9043873098
 10
316.2796745661
 20
20.2529108613
 10
315.518344563
 20
20.5465796862
 10
314.6971285896
 20
20.7803690294
 10
313.8300778787
 20
20.9502786906
 10
312.9320279085
 20
21.0534014682
 10
312.018344563
 20
21.087972903
 10
311.1046612175
 20
21.0534014682
 10
310.2066112473
 20
20.9502786906
 10
309.3395605365
 20
20.7803690294
 10
308.518344563
 20
20.5465796862
 10
307.7570145599
 20
20.2529108613
 10
307.0685970947
 20
19.9043873098
 10
306.464871181
 20
19.5069723664
 10
305.9561667365
 20
19.0674659107
 10
305.5511878354
 20
18.5933880203
 10
305.256863779
 20
18.0928502992
 10
305.0782305334
 20
17.5744170866
 10
305.018344563
 20
17.0469589184
  0
ENDSEC
  0
SECTION
  2
OBJECTS
  0
DICTIONARY
  5
C
330
0
100
AcDbDictionary
281
     1
  3
ACAD_GROUP
350
D
  3
ACAD_LAYOUT
350
1A
  3
ACAD_MLINESTYLE
350
17
  3
ACAD_PLOTSETTINGS
350
19
  3
ACAD_PLOTSTYLENAME
350
E
  3
ACAD_SCALELIST
350
47
  3
DWGPROPS
350
106
  0
DICTIONARY
  5
D
102
{ACAD_REACTORS
330
C
102
}
330
C
100
AcDbDictionary
281
     1
  0
DICTIONARY
  5
1A
102
{ACAD_REACTORS
330
C
102
}
330
C
100
AcDbDictionary
281
     1
  3
Layout1
350
1E
  3
Layout2
350
26
  3
Model
350
22
  0
DICTIONARY
  5
17
102
{ACAD_REACTORS
330
C
102
}
330
C
100
AcDbDictionary
281
     1
  3
Standard
350
18
  0
DICTIONARY
  5
19
102
{ACAD_REACTORS
330
C
102
}
330
C
100
AcDbDictionary
281
     1
  0
ACDBDICTIONARYWDFLT
  5
E
102
{ACAD_REACTORS
330
C
102
}
330
C
100
AcDbDictionary
281
     1
  3
Normal
350
F
100
AcDbDictionaryWithDefault
340
F
  0
DICTIONARY
  5
47
102
{ACAD_REACTORS
330
C
102
}
330
C
100
AcDbDictionary
281
     1
  3
A0
350
48
  3
A1
350
49
  3
A2
350
4A
  3
A3
350
4B
  3
A4
350
4C
  3
A5
350
4D
  3
A6
350
4E
  3
A7
350
4F
  3
A8
350
50
  3
A9
350
51
  3
B0
350
52
  3
B1
350
53
  3
B2
350
54
  3
B3
350
55
  3
B4
350
56
  3
B5
350
57
  3
B6
350
58
  3
B7
350
59
  3
B8
350
5A
  3
B9
350
5B
  3
C0
350
5C
  3
C1
350
5D
  3
C2
350
5E
  3
C3
350
5F
  3
C4
350
60
  3
C5
350
61
  3
C6
350
62
  3
C7
350
63
  3
C8
350
64
  3
C9
350
65
  3
D0
350
66
  3
D1
350
67
  3
D2
350
68
  0
XRECORD
  5
106
102
{ACAD_REACTORS
330
C
102
}
330
C
100
AcDbXrecord
280
     1
  1
DWGPROPS COOKIE
  2

  3

  4

  6

  7

  8
b.kav
  9

300
=
301
=
302
=
303
=
304
=
305
=
306
=
307
=
308
=
309
=
 40
0.0
 41
2459741.482852488
 42
2459741.482852674
  1

 90
        0
  0
LAYOUT
  5
1E
102
{ACAD_REACTORS
330
1A
102
}
330
1A
100
AcDbPlotSettings
  1

  2
none_device
  4

  6

 40
0.0
 41
0.0
 42
0.0
 43
0.0
 44
0.0
 45
0.0
 46
0.0
 47
0.0
 48
0.0
 49
0.0
140
0.0
141
0.0
142
1.0
143
1.0
 70
   688
 72
     1
 73
     0
 74
     5
  7

 75
    16
147
1.0
148
0.0
149
0.0
100
AcDbLayout
  1
Layout1
 70
     1
 71
     1
 10
0.0
 20
0.0
 11
420.0
 21
297.0
 12
0.0
 22
0.0
 32
0.0
 14
1.0000000000E+20
 24
1.0000000000E+20
 34
1.0000000000E+20
 15
-1.0000000000E+20
 25
-1.0000000000E+20
 35
-1.0000000000E+20
146
0.0
 13
0.0
 23
0.0
 33
0.0
 16
1.0
 26
0.0
 36
0.0
 17
0.0
 27
1.0
 37
0.0
 76
     0
330
1B
  0
LAYOUT
  5
26
102
{ACAD_REACTORS
330
1A
102
}
330
1A
100
AcDbPlotSettings
  1

  2
none_device
  4

  6

 40
0.0
 41
0.0
 42
0.0
 43
0.0
 44
0.0
 45
0.0
 46
0.0
 47
0.0
 48
0.0
 49
0.0
140
0.0
141
0.0
142
1.0
143
1.0
 70
   688
 72
     1
 73
     0
 74
     5
  7

 75
    16
147
1.0
148
0.0
149
0.0
100
AcDbLayout
  1
Layout2
 70
     1
 71
     2
 10
0.0
 20
0.0
 11
0.0
 21
0.0
 12
0.0
 22
0.0
 32
0.0
 14
0.0
 24
0.0
 34
0.0
 15
0.0
 25
0.0
 35
0.0
146
0.0
 13
0.0
 23
0.0
 33
0.0
 16
1.0
 26
0.0
 36
0.0
 17
0.0
 27
1.0
 37
0.0
 76
     0
330
23
  0
LAYOUT
  5
22
102
{ACAD_REACTORS
330
1A
102
}
330
1A
100
AcDbPlotSettings
  1

  2
none_device
  4
Letter_(8.50_x_11.00_Inches)
  6

 40
6.35
 41
6.35
 42
6.35000508
 43
6.35000508
 44
215.9
 45
279.4
 46
0.0
 47
0.0
 48
0.0
 49
0.0
140
0.0
141
0.0
142
1.0
143
1.0
 70
  1712
 72
     1
 73
     0
 74
     0
  7

 75
     0
147
1.0
148
0.0
149
0.0
100
AcDbLayout
  1
Model
 70
     1
 71
     0
 10
0.0
 20
0.0
 11
279.4
 21
215.9
 12
0.0
 22
0.0
 32
0.0
 14
0.0
 24
0.0
 34
0.0
 15
279.4
 25
215.9
 35
0.0
146
0.0
 13
0.0
 23
0.0
 33
0.0
 16
1.0
 26
0.0
 36
0.0
 17
0.0
 27
1.0
 37
0.0
 76
     0
330
1F
331
29
  0
MLINESTYLE
  5
18
102
{ACAD_REACTORS
330
17
102
}
330
17
100
AcDbMlineStyle
  2
Standard
 70
     0
  3

 62
   256
 51
90.0
 52
90.0
 71
     2
 49
0.5
 62
   256
  6
BYLAYER
 49
-0.5
 62
   256
  6
BYLAYER
  0
ACDBPLACEHOLDER
  5
F
102
{ACAD_REACTORS
330
E
102
}
330
E
  0
SCALE
  5
48
102
{ACAD_REACTORS
330
47
102
}
330
47
100
AcDbScale
 70
     0
300
1:1
140
1.0
141
1.0
290
     1
  0
SCALE
  5
49
102
{ACAD_REACTORS
330
47
102
}
330
47
100
AcDbScale
 70
     0
300
1:2
140
1.0
141
2.0
290
     0
  0
SCALE
  5
4A
102
{ACAD_REACTORS
330
47
102
}
330
47
100
AcDbScale
 70
     0
300
1:4
140
1.0
141
4.0
290
     0
  0
SCALE
  5
4B
102
{ACAD_REACTORS
330
47
102
}
330
47
100
AcDbScale
 70
     0
300
1:5
140
1.0
141
5.0
290
     0
  0
SCALE
  5
4C
102
{ACAD_REACTORS
330
47
102
}
330
47
100
AcDbScale
 70
     0
300
1:8
140
1.0
141
8.0
290
     0
  0
SCALE
  5
4D
102
{ACAD_REACTORS
330
47
102
}
330
47
100
AcDbScale
 70
     0
300
1:10
140
1.0
141
10.0
290
     0
  0
SCALE
  5
4E
102
{ACAD_REACTORS
330
47
102
}
330
47
100
AcDbScale
 70
     0
300
1:16
140
1.0
141
16.0
290
     0
  0
SCALE
  5
4F
102
{ACAD_REACTORS
330
47
102
}
330
47
100
AcDbScale
 70
     0
300
1:20
140
1.0
141
20.0
290
     0
  0
SCALE
  5
50
102
{ACAD_REACTORS
330
47
102
}
330
47
100
AcDbScale
 70
     0
300
1:30
140
1.0
141
30.0
290
     0
  0
SCALE
  5
51
102
{ACAD_REACTORS
330
47
102
}
330
47
100
AcDbScale
 70
     0
300
1:40
140
1.0
141
40.0
290
     0
  0
SCALE
  5
52
102
{ACAD_REACTORS
330
47
102
}
330
47
100
AcDbScale
 70
     0
300
1:50
140
1.0
141
50.0
290
     0
  0
SCALE
  5
53
102
{ACAD_REACTORS
330
47
102
}
330
47
100
AcDbScale
 70
     0
300
1:100
140
1.0
141
100.0
290
     0
  0
SCALE
  5
54
102
{ACAD_REACTORS
330
47
102
}
330
47
100
AcDbScale
 70
     0
300
2:1
140
2.0
141
1.0
290
     0
  0
SCALE
  5
55
102
{ACAD_REACTORS
330
47
102
}
330
47
100
AcDbScale
 70
     0
300
4:1
140
4.0
141
1.0
290
     0
  0
SCALE
  5
56
102
{ACAD_REACTORS
330
47
102
}
330
47
100
AcDbScale
 70
     0
300
8:1
140
8.0
141
1.0
290
     0
  0
SCALE
  5
57
102
{ACAD_REACTORS
330
47
102
}
330
47
100
AcDbScale
 70
     0
300
10:1
140
10.0
141
1.0
290
     0
  0
SCALE
  5
58
102
{ACAD_REACTORS
330
47
102
}
330
47
100
AcDbScale
 70
     0
300
100:1
140
100.0
141
1.0
290
     0
  0
SCALE
  5
59
102
{ACAD_REACTORS
330
47
102
}
330
47
100
AcDbScale
 70
     0
300
1/128" = 1'-0"
140
0.0078125
141
12.0
290
     0
  0
SCALE
  5
5A
102
{ACAD_REACTORS
330
47
102
}
330
47
100
AcDbScale
 70
     0
300
1/64" = 1'-0"
140
0.015625
141
12.0
290
     0
  0
SCALE
  5
5B
102
{ACAD_REACTORS
330
47
102
}
330
47
100
AcDbScale
 70
     0
300
1/32" = 1'-0"
140
0.03125
141
12.0
290
     0
  0
SCALE
  5
5C
102
{ACAD_REACTORS
330
47
102
}
330
47
100
AcDbScale
 70
     0
300
1/16" = 1'-0"
140
0.0625
141
12.0
290
     0
  0
SCALE
  5
5D
102
{ACAD_REACTORS
330
47
102
}
330
47
100
AcDbScale
 70
     0
300
3/32" = 1'-0"
140
0.09375
141
12.0
290
     0
  0
SCALE
  5
5E
102
{ACAD_REACTORS
330
47
102
}
330
47
100
AcDbScale
 70
     0
300
1/8" = 1'-0"
140
0.125
141
12.0
290
     0
  0
SCALE
  5
5F
102
{ACAD_REACTORS
330
47
102
}
330
47
100
AcDbScale
 70
     0
300
3/16" = 1'-0"
140
0.1875
141
12.0
290
     0
  0
SCALE
  5
60
102
{ACAD_REACTORS
330
47
102
}
330
47
100
AcDbScale
 70
     0
300
1/4" = 1'-0"
140
0.25
141
12.0
290
     0
  0
SCALE
  5
61
102
{ACAD_REACTORS
330
47
102
}
330
47
100
AcDbScale
 70
     0
300
3/8" = 1'-0"
140
0.375
141
12.0
290
     0
  0
SCALE
  5
62
102
{ACAD_REACTORS
330
47
102
}
330
47
100
AcDbScale
 70
     0
300
1/2" = 1'-0"
140
0.5
141
12.0
290
     0
  0
SCALE
  5
63
102
{ACAD_REACTORS
330
47
102
}
330
47
100
AcDbScale
 70
     0
300
3/4" = 1'-0"
140
0.75
141
12.0
290
     0
  0
SCALE
  5
64
102
{ACAD_REACTORS
330
47
102
}
330
47
100
AcDbScale
 70
     0
300
1" = 1'-0"
140
1.0
141
12.0
290
     0
  0
SCALE
  5
65
102
{ACAD_REACTORS
330
47
102
}
330
47
100
AcDbScale
 70
     0
300
1-1/2" = 1'-0"
140
1.5
141
12.0
290
     0
  0
SCALE
  5
66
102
{ACAD_REACTORS
330
47
102
}
330
47
100
AcDbScale
 70
     0
300
3" = 1'-0"
140
3.0
141
12.0
290
     0
  0
SCALE
  5
67
102
{ACAD_REACTORS
330
47
102
}
330
47
100
AcDbScale
 70
     0
300
6" = 1'-0"
140
6.0
141
12.0
290
     0
  0
SCALE
  5
68
102
{ACAD_REACTORS
330
47
102
}
330
47
100
AcDbScale
 70
     0
300
1'-0" = 1'-0"
140
12.0
141
12.0
290
     0
  0
ENDSEC
  0
EOF
